999
dxflib 2.0.4.8
  0
SECTION
  2
HEADER
  9
$ACADVER
  1
AC1015
  9
$HANDSEED
  5
FFFF
  9
$DIMASZ
 40
0.1
  9
$DIMGAP
 40
0.025
  9
$INSUNITS
 70
1
  9
$DIMEXO
 40
0.025
  9
$DIMTXT
 40
0.1
  9
$DIMSTYLE
  2
Standard
  9
$PLIMMIN
 10
0.0
 20
0.0
  9
$PLIMMAX
 10
8.2677165354330722
 20
11.6929133858267722
  9
$DIMEXE
 40
0.05
  0
ENDSEC
  0
SECTION
  2
TABLES
  0
TABLE
  2
VPORT
  5
8
100
AcDbSymbolTable
 70
1
  0
VPORT
  5
30
100
AcDbSymbolTableRecord
100
AcDbViewportTableRecord
  2
*Active
 70
0
 10
0.0
 20
0.0
 11
1.0
 21
1.0
 12
286.3055555555554861
 22
148.5
 13
0.0
 23
0.0
 14
10.0
 24
10.0
 15
10.0
 25
10.0
 16
0.0
 26
0.0
 36
1.0
 17
0.0
 27
0.0
 37
0.0
 40
297.0
 41
1.92798353909465
 42
50.0
 43
0.0
 44
0.0
 50
0.0
 51
0.0
 71
0
 72
100
 73
1
 74
3
 75
1
 76
1
 77
0
 78
0
281
0
 65
1
110
0.0
120
0.0
130
0.0
111
1.0
121
0.0
131
0.0
112
0.0
122
1.0
132
0.0
 79
0
146
0.0
  0
ENDTAB
  0
TABLE
  2
LTYPE
  5
5
100
AcDbSymbolTable
 70
21
  0
LTYPE
  5
14
100
AcDbSymbolTableRecord
100
AcDbLinetypeTableRecord
  2
ByBlock
 70
0
  3

 72
65
 73
0
 40
0.0
  0
LTYPE
  5
15
100
AcDbSymbolTableRecord
100
AcDbLinetypeTableRecord
  2
ByLayer
 70
0
  3

 72
65
 73
0
 40
0.0
  0
LTYPE
  5
16
100
AcDbSymbolTableRecord
100
AcDbLinetypeTableRecord
  2
CONTINUOUS
 70
0
  3
Solid line
 72
65
 73
0
 40
0.0
  0
LTYPE
  5
31
100
AcDbSymbolTableRecord
100
AcDbLinetypeTableRecord
  2
DOT
 70
0
  3
Dot . . . . . . . . . . . . . . . . . . . . . .
 72
65
 73
2
 40
6.3499999999999996
 49
0.0
 74
0
 49
-6.3499999999999996
 74
0
  0
LTYPE
  5
32
100
AcDbSymbolTableRecord
100
AcDbLinetypeTableRecord
  2
DOT2
 70
0
  3
Dot (.5x) .....................................
 72
65
 73
2
 40
3.1749999999999998
 49
0.0
 74
0
 49
-3.1749999999999998
 74
0
  0
LTYPE
  5
33
100
AcDbSymbolTableRecord
100
AcDbLinetypeTableRecord
  2
DOTX2
 70
0
  3
Dot (2x) .  .  .  .  .  .  .  .  .  .  .  .  .
 72
65
 73
2
 40
12.6999999999999993
 49
0.0
 74
0
 49
-12.6999999999999993
 74
0
  0
LTYPE
  5
34
100
AcDbSymbolTableRecord
100
AcDbLinetypeTableRecord
  2
DASHED
 70
0
  3
Dashed __ __ __ __ __ __ __ __ __ __ __ __ __ _
 72
65
 73
2
 40
19.0500000000000007
 49
12.6999999999999993
 74
0
 49
-6.3499999999999996
 74
0
  0
LTYPE
  5
35
100
AcDbSymbolTableRecord
100
AcDbLinetypeTableRecord
  2
DASHED2
 70
0
  3
Dashed (.5x) _ _ _ _ _ _ _ _ _ _ _ _ _ _ _ _ _
 72
65
 73
2
 40
9.5250000000000004
 49
6.3499999999999996
 74
0
 49
-3.1749999999999998
 74
0
  0
LTYPE
  5
36
100
AcDbSymbolTableRecord
100
AcDbLinetypeTableRecord
  2
DASHEDX2
 70
0
  3
Dashed (2x) ____  ____  ____  ____  ____  ___
 72
65
 73
2
 40
38.1000000000000014
 49
25.3999999999999986
 74
0
 49
-12.6999999999999993
 74
0
  0
LTYPE
  5
37
100
AcDbSymbolTableRecord
100
AcDbLinetypeTableRecord
  2
DASHDOT
 70
0
  3
Dash dot __ . __ . __ . __ . __ . __ . __ . __
 72
65
 73
4
 40
25.3999999999999986
 49
12.6999999999999993
 74
0
 49
-6.3499999999999996
 74
0
 49
0.0
 74
0
 49
-6.3499999999999996
 74
0
  0
LTYPE
  5
38
100
AcDbSymbolTableRecord
100
AcDbLinetypeTableRecord
  2
DASHDOT2
 70
0
  3
Dash dot (.5x) _._._._._._._._._._._._._._._.
 72
65
 73
4
 40
12.6999999999999993
 49
6.3499999999999996
 74
0
 49
-3.1749999999999998
 74
0
 49
0.0
 74
0
 49
-3.1749999999999998
 74
0
  0
LTYPE
  5
39
100
AcDbSymbolTableRecord
100
AcDbLinetypeTableRecord
  2
DASHDOTX2
 70
0
  3
Dash dot (2x) ____  .  ____  .  ____  .  ___
 72
65
 73
4
 40
50.7999999999999972
 49
25.3999999999999986
 74
0
 49
-12.6999999999999993
 74
0
 49
0.0
 74
0
 49
-12.6999999999999993
 74
0
  0
LTYPE
  5
3A
100
AcDbSymbolTableRecord
100
AcDbLinetypeTableRecord
  2
DIVIDE
 70
0
  3
Divide ____ . . ____ . . ____ . . ____ . . ____
 72
65
 73
6
 40
31.75
 49
12.6999999999999993
 74
0
 49
-6.3499999999999996
 74
0
 49
0.0
 74
0
 49
-6.3499999999999996
 74
0
 49
0.0
 74
0
 49
-6.3499999999999996
 74
0
  0
LTYPE
  5
3B
100
AcDbSymbolTableRecord
100
AcDbLinetypeTableRecord
  2
DIVIDE2
 70
0
  3
Divide (.5x) __..__..__..__..__..__..__..__.._
 72
65
 73
6
 40
15.875
 49
6.3499999999999996
 74
0
 49
-3.1749999999999998
 74
0
 49
0.0
 74
0
 49
-3.1749999999999998
 74
0
 49
0.0
 74
0
 49
-3.1749999999999998
 74
0
  0
LTYPE
  5
3C
100
AcDbSymbolTableRecord
100
AcDbLinetypeTableRecord
  2
DIVIDEX2
 70
0
  3
Divide (2x) ________  .  .  ________  .  .  _
 72
65
 73
6
 40
63.5
 49
25.3999999999999986
 74
0
 49
-12.6999999999999993
 74
0
 49
0.0
 74
0
 49
-12.6999999999999993
 74
0
 49
0.0
 74
0
 49
-12.6999999999999993
 74
0
  0
LTYPE
  5
3D
100
AcDbSymbolTableRecord
100
AcDbLinetypeTableRecord
  2
CENTER
 70
0
  3
Center ____ _ ____ _ ____ _ ____ _ ____ _ ____
 72
65
 73
4
 40
50.7999999999999972
 49
31.75
 74
0
 49
-6.3499999999999996
 74
0
 49
6.3499999999999996
 74
0
 49
-6.3499999999999996
 74
0
  0
LTYPE
  5
3E
100
AcDbSymbolTableRecord
100
AcDbLinetypeTableRecord
  2
CENTER2
 70
0
  3
Center (.5x) ___ _ ___ _ ___ _ ___ _ ___ _ ___
 72
65
 73
4
 40
28.5749999999999993
 49
19.0500000000000007
 74
0
 49
-3.1749999999999998
 74
0
 49
3.1749999999999998
 74
0
 49
-3.1749999999999998
 74
0
  0
LTYPE
  5
3F
100
AcDbSymbolTableRecord
100
AcDbLinetypeTableRecord
  2
CENTERX2
 70
0
  3
Center (2x) ________  __  ________  __  _____
 72
65
 73
4
 40
101.5999999999999943
 49
63.5
 74
0
 49
-12.6999999999999993
 74
0
 49
12.6999999999999993
 74
0
 49
-12.6999999999999993
 74
0
  0
LTYPE
  5
40
100
AcDbSymbolTableRecord
100
AcDbLinetypeTableRecord
  2
BORDER
 70
0
  3
Border __ __ . __ __ . __ __ . __ __ . __ __ .
 72
65
 73
6
 40
44.4500000000000028
 49
12.6999999999999993
 74
0
 49
-6.3499999999999996
 74
0
 49
12.6999999999999993
 74
0
 49
-6.3499999999999996
 74
0
 49
0.0
 74
0
 49
-6.3499999999999996
 74
0
  0
LTYPE
  5
41
100
AcDbSymbolTableRecord
100
AcDbLinetypeTableRecord
  2
BORDER2
 70
0
  3
Border (.5x) __.__.__.__.__.__.__.__.__.__.__.
 72
65
 73
6
 40
22.2250000000000014
 49
6.3499999999999996
 74
0
 49
-3.1749999999999998
 74
0
 49
6.3499999999999996
 74
0
 49
-3.1749999999999998
 74
0
 49
0.0
 74
0
 49
-3.1749999999999998
 74
0
  0
LTYPE
  5
42
100
AcDbSymbolTableRecord
100
AcDbLinetypeTableRecord
  2
BORDERX2
 70
0
  3
Border (2x) ____  ____  .  ____  ____  .  ___
 72
65
 73
6
 40
88.9000000000000057
 49
25.3999999999999986
 74
0
 49
-12.6999999999999993
 74
0
 49
25.3999999999999986
 74
0
 49
-12.6999999999999993
 74
0
 49
0.0
 74
0
 49
-12.6999999999999993
 74
0
  0
ENDTAB
  0
TABLE
  2
LAYER
  5
2
100
AcDbSymbolTable
 70
5
  0
LAYER
  5
10
100
AcDbSymbolTableRecord
100
AcDbLayerTableRecord
  2
0
 70
4
 62
7
  6
CONTINUOUS
370
0
390
F
  0
LAYER
  5
43
100
AcDbSymbolTableRecord
100
AcDbLayerTableRecord
  2
roomnumber
 70
5
 62
3
  6
CONTINUOUS
370
0
390
F
  0
LAYER
  5
44
100
AcDbSymbolTableRecord
100
AcDbLayerTableRecord
  2
outline
 70
5
 62
7
  6
CONTINUOUS
370
0
390
F
  0
LAYER
  5
45
100
AcDbSymbolTableRecord
100
AcDbLayerTableRecord
  2
registers
 70
5
 62
1
  6
CONTINUOUS
370
0
390
F
  0
LAYER
  5
46
100
AcDbSymbolTableRecord
100
AcDbLayerTableRecord
  2
flow
 70
1
 62
2
  6
CONTINUOUS
370
0
390
F
  0
ENDTAB
  0
TABLE
  2
STYLE
  5
3
100
AcDbSymbolTable
 70
1
  0
STYLE
  5
11
100
AcDbSymbolTableRecord
100
AcDbTextStyleTableRecord
  2
Standard
 70
0
 40
0.0
 41
0.75
 50
0.0
 71
0
 42
2.5
  3
txt
  4

  0
ENDTAB
  0
TABLE
  2
VIEW
  5
6
100
AcDbSymbolTable
 70
0
  0
ENDTAB
  0
TABLE
  2
UCS
  5
7
100
AcDbSymbolTable
 70
0
  0
ENDTAB
  0
TABLE
  2
APPID
  5
9
100
AcDbSymbolTable
 70
1
  0
APPID
  5
12
100
AcDbSymbolTableRecord
100
AcDbRegAppTableRecord
  2
ACAD
 70
0
  0
ENDTAB
  0
TABLE
  2
DIMSTYLE
  5
A
100
AcDbSymbolTable
 70
1
100
AcDbDimStyleTable
 71
0
  0
DIMSTYLE
105
27
100
AcDbSymbolTableRecord
100
AcDbDimStyleTableRecord
  2
Standard
 41
0.1
 42
0.025
 43
3.75
 44
0.05
 70
0
 73
0
 74
0
 77
1
 78
8
140
0.1
141
2.5
143
0.03937007874016
147
0.025
171
3
172
1
271
2
272
2
274
3
278
44
283
0
284
8
340
11
  0
ENDTAB
  0
TABLE
  2
BLOCK_RECORD
  5
1
100
AcDbSymbolTable
 70
1
  0
BLOCK_RECORD
  5
1F
100
AcDbSymbolTableRecord
100
AcDbBlockTableRecord
  2
*Model_Space
340
22
  0
BLOCK_RECORD
  5
1B
100
AcDbSymbolTableRecord
100
AcDbBlockTableRecord
  2
*Paper_Space
340
1E
  0
BLOCK_RECORD
  5
23
100
AcDbSymbolTableRecord
100
AcDbBlockTableRecord
  2
*Paper_Space0
340
26
  0
ENDTAB
  0
ENDSEC
  0
SECTION
  2
BLOCKS
  0
BLOCK
  5
20
100
AcDbEntity
  8
0
100
AcDbBlockBegin
  2
*Model_Space
 70
0
 10
0.0
 20
0.0
 30
0.0
  3
*Model_Space
  1

  0
ENDBLK
  5
21
100
AcDbEntity
  8
0
100
AcDbBlockEnd
  0
BLOCK
  5
1C
100
AcDbEntity
 67
1
  8
0
100
AcDbBlockBegin
  2
*Paper_Space
 70
0
 10
0.0
 20
0.0
 30
0.0
  3
*Paper_Space
  1

  0
ENDBLK
  5
1D
100
AcDbEntity
 67
1
  8
0
100
AcDbBlockEnd
  0
BLOCK
  5
24
100
AcDbEntity
  8
0
100
AcDbBlockBegin
  2
*Paper_Space0
 70
0
 10
0.0
 20
0.0
 30
0.0
  3
*Paper_Space0
  1

  0
ENDBLK
  5
25
100
AcDbEntity
  8
0
100
AcDbBlockEnd
  0
ENDSEC
  0
SECTION
  2
ENTITIES
  0
HATCH
  5
47
  8
0
 62
256
370
-1
  6
ByLayer
100
AcDbEntity
100
AcDbHatch
 10
0.0
 20
0.0
 30
0.0
210
0.0
220
0.0
230
1.0
  2
ansi31
 70
0
 71
0
 91
1
 92
1
 93
29
 72
1
 10
-0.3333366666666667
 20
-2.9999996666666666
 11
-0.3333366666666668
 21
-3.7499996666666666
 72
1
 10
-0.3333366666666668
 20
-3.7499996666666666
 11
-0.3333366666666673
 21
-12.1666666666666661
 72
1
 10
-0.3333366666666673
 20
-12.1666666666666661
 11
24.3333333333333321
 21
-12.1666666666666661
 72
1
 10
24.3333333333333321
 20
-12.1666666666666661
 11
34.3333333333333286
 21
-12.1666666666666661
 72
1
 10
34.3333333333333286
 20
-12.1666666666666661
 11
34.3333333333333286
 21
-3.0
 72
1
 10
34.3333333333333286
 20
-3.0
 11
34.0
 21
-3.0
 72
1
 10
34.0
 20
-3.0
 11
34.0
 21
-11.8333333333333339
 72
1
 10
34.0
 20
-11.8333333333333339
 11
24.3333333333333321
 21
-11.8333333333333339
 72
1
 10
24.3333333333333321
 20
-11.8333333333333339
 11
22.0833333333333321
 21
-11.8333333333333339
 72
1
 10
22.0833333333333321
 20
-11.8333333333333339
 11
22.0833333333333321
 21
-7.583330000000001
 72
1
 10
22.0833333333333321
 20
-7.583330000000001
 11
24.3333333333333321
 21
-7.583330000000001
 72
1
 10
24.3333333333333321
 20
-7.583330000000001
 11
24.3333333333333321
 21
-7.2499966666666671
 72
1
 10
24.3333333333333321
 20
-7.2499966666666671
 11
22.0833333333333321
 21
-7.2499966666666671
 72
1
 10
22.0833333333333321
 20
-7.2499966666666671
 11
22.0833333333333321
 21
-2.8333333333333335
 72
1
 10
22.0833333333333321
 20
-2.8333333333333335
 11
21.7499999999999964
 21
-2.8333333333333335
 72
1
 10
21.7499999999999964
 20
-2.8333333333333335
 11
21.7499999999999964
 21
-11.8333333333333339
 72
1
 10
21.7499999999999964
 20
-11.8333333333333339
 11
5.2916633333333332
 21
-11.8333333333333339
 72
1
 10
5.2916633333333332
 20
-11.8333333333333339
 11
5.2916633333333332
 21
-3.5833330000000001
 72
1
 10
5.2916633333333332
 20
-3.5833330000000001
 11
4.5416633333333332
 21
-3.5833330000000001
 72
1
 10
4.5416633333333332
 20
-3.5833330000000001
 11
4.5416633333333332
 21
-3.9166663333333331
 72
1
 10
4.5416633333333332
 20
-3.9166663333333331
 11
4.9583299999999992
 21
-3.9166663333333331
 72
1
 10
4.9583299999999992
 20
-3.9166663333333331
 11
4.9583299999999992
 21
-11.8333333333333339
 72
1
 10
4.9583299999999992
 20
-11.8333333333333339
 11
-0.000003333333334
 21
-11.8333333333333339
 72
1
 10
-0.000003333333334
 20
-11.8333333333333339
 11
-0.0000033333333335
 21
-3.9166663333333331
 72
1
 10
-0.0000033333333335
 20
-3.9166663333333331
 11
1.9999966666666664
 21
-3.9166663333333331
 72
1
 10
1.9999966666666664
 20
-3.9166663333333331
 11
1.9999966666666664
 21
-3.5833330000000001
 72
1
 10
1.9999966666666664
 20
-3.5833330000000001
 11
-0.0000033333333335
 21
-3.5833330000000001
 72
1
 10
-0.0000033333333335
 20
-3.5833330000000001
 11
-0.0000033333333334
 21
-2.9999996666666666
 72
1
 10
-0.0000033333333334
 20
-2.9999996666666666
 11
-0.3333366666666667
 21
-2.9999996666666666
 97
0
 75
0
 76
1
 52
0.0
 41
0.1
 77
0
 78
1
 53
45.0
 43
0.0
 44
0.0
 45
-0.0883883476483184
 46
0.0883883476483185
 79
0
 98
0
  0
HATCH
  5
48
  8
0
 62
256
370
-1
  6
ByLayer
100
AcDbEntity
100
AcDbHatch
 10
0.0
 20
0.0
 30
0.0
210
0.0
220
0.0
230
1.0
  2
ansi31
 70
0
 71
0
 91
1
 92
1
 93
30
 72
1
 10
34.2083299999999966
 20
2.6666666666666665
 11
34.624996666666668
 21
2.6666666666666665
 72
1
 10
34.624996666666668
 20
2.6666666666666665
 11
34.624996666666668
 21
3.0
 72
1
 10
34.624996666666668
 20
3.0
 11
34.6666633333333323
 21
3.0
 72
1
 10
34.6666633333333323
 20
3.0
 11
34.6666633333333323
 21
3.166666666666667
 72
1
 10
34.6666633333333323
 20
3.166666666666667
 11
34.624996666666668
 21
3.166666666666667
 72
1
 10
34.624996666666668
 20
3.166666666666667
 11
34.624996666666668
 21
4.9166700000000008
 72
1
 10
34.624996666666668
 20
4.9166700000000008
 11
36.8333299999999966
 21
4.9166700000000008
 72
1
 10
36.8333299999999966
 20
4.9166700000000008
 11
36.8333299999999966
 21
3.166666666666667
 72
1
 10
36.8333299999999966
 20
3.166666666666667
 11
36.6666633333333323
 21
3.166666666666667
 72
1
 10
36.6666633333333323
 20
3.166666666666667
 11
36.6666633333333323
 21
3.0
 72
1
 10
36.6666633333333323
 20
3.0
 11
36.999996666666668
 21
3.0
 72
1
 10
36.999996666666668
 20
3.0
 11
36.999996666666668
 21
5.0833366666666668
 72
1
 10
36.999996666666668
 20
5.0833366666666668
 11
34.624996666666668
 21
5.0833366666666668
 72
1
 10
34.624996666666668
 20
5.0833366666666668
 11
34.624996666666668
 21
11.375
 72
1
 10
34.624996666666668
 20
11.375
 11
63.5416633333333323
 21
11.375
 72
1
 10
63.5416633333333323
 20
11.375
 11
63.5416633333333323
 21
0.125
 72
1
 10
63.5416633333333323
 20
0.125
 11
44.3333299999999966
 21
0.125
 72
1
 10
44.3333299999999966
 20
0.125
 11
44.3333299999999966
 21
-0.125
 72
1
 10
44.3333299999999966
 20
-0.125
 11
63.7916633333333323
 21
-0.125
 72
1
 10
63.7916633333333323
 20
-0.125
 11
63.7916633333333323
 21
11.625
 72
1
 10
63.7916633333333323
 20
11.625
 11
37.2916666666666643
 21
11.625
 72
1
 10
37.2916666666666643
 20
11.625
 11
37.2916666666666643
 21
11.8333329999999997
 72
1
 10
37.2916666666666643
 20
11.8333329999999997
 11
36.9583333333333357
 21
11.8333329999999997
 72
1
 10
36.9583333333333357
 20
11.8333329999999997
 11
36.9583333333333357
 21
11.625
 72
1
 10
36.9583333333333357
 20
11.625
 11
34.2083299999999966
 21
11.625
 72
1
 10
34.2083299999999966
 20
11.625
 11
34.2083299999999966
 21
11.375
 72
1
 10
34.2083299999999966
 20
11.375
 11
34.4583299999999966
 21
11.375
 72
1
 10
34.4583299999999966
 20
11.375
 11
34.4583299999999966
 21
2.8333333333333335
 72
1
 10
34.4583299999999966
 20
2.8333333333333335
 11
34.2083299999999966
 21
2.8333333333333335
 72
1
 10
34.2083299999999966
 20
2.8333333333333335
 11
34.2083299999999966
 21
2.6666666666666665
 97
0
 75
0
 76
1
 52
0.0
 41
0.1
 77
0
 78
1
 53
45.0
 43
0.0
 44
0.0
 45
-0.0883883476483184
 46
0.0883883476483185
 79
0
 98
0
  0
HATCH
  5
49
  8
0
 62
256
370
-1
  6
ByLayer
100
AcDbEntity
100
AcDbHatch
 10
0.0
 20
0.0
 30
0.0
210
0.0
220
0.0
230
1.0
  2
ansi31
 70
0
 71
0
 91
1
 92
1
 93
12
 72
1
 10
15.7499966666666662
 20
0.125
 11
34.499996666666668
 21
0.125
 72
1
 10
34.499996666666668
 20
0.125
 11
34.499996666666668
 21
-0.125
 72
1
 10
34.499996666666668
 20
-0.125
 11
34.3333333333333286
 21
-0.125
 72
1
 10
34.3333333333333286
 20
-0.125
 11
34.3333333333333286
 21
-0.3333333333333334
 72
1
 10
34.3333333333333286
 20
-0.3333333333333334
 11
34.0
 21
-0.3333333333333333
 72
1
 10
34.0
 20
-0.3333333333333333
 11
34.0
 21
-0.125
 72
1
 10
34.0
 20
-0.125
 11
22.0833333333333321
 21
-0.125
 72
1
 10
22.0833333333333321
 20
-0.125
 11
22.0833333333333321
 21
-0.3333333333333334
 72
1
 10
22.0833333333333321
 20
-0.3333333333333334
 11
21.7499999999999964
 21
-0.3333333333333333
 72
1
 10
21.7499999999999964
 20
-0.3333333333333333
 11
21.7499999999999964
 21
-0.125
 72
1
 10
21.7499999999999964
 20
-0.125
 11
15.7499966666666662
 21
-0.125
 72
1
 10
15.7499966666666662
 20
-0.125
 11
15.7499966666666662
 21
0.125
 97
0
 75
0
 76
1
 52
0.0
 41
0.1
 77
0
 78
1
 53
45.0
 43
0.0
 44
0.0
 45
-0.0883883476483184
 46
0.0883883476483185
 79
0
 98
0
  0
HATCH
  5
4A
  8
0
 62
256
370
-1
  6
ByLayer
100
AcDbEntity
100
AcDbHatch
 10
0.0
 20
0.0
 30
0.0
210
0.0
220
0.0
230
1.0
  2
ansi31
 70
0
 71
0
 91
1
 92
1
 93
83
 72
1
 10
10.4166666666666661
 20
2.1666669999999999
 11
10.4166666666666661
 21
2.75
 72
1
 10
10.4166666666666661
 20
2.75
 11
10.4166666666666661
 21
3.4166666666666665
 72
1
 10
10.4166666666666661
 20
3.4166666666666665
 11
7.9999966666666671
 21
3.4166666666666665
 72
1
 10
7.9999966666666671
 20
3.4166666666666665
 11
7.9999966666666671
 21
3.75
 72
1
 10
7.9999966666666671
 20
3.75
 11
8.1666633333333341
 21
3.75
 72
1
 10
8.1666633333333341
 20
3.75
 11
8.1666633333333341
 21
3.5833333333333335
 72
1
 10
8.1666633333333341
 20
3.5833333333333335
 11
10.4166666666666661
 21
3.5833333333333335
 72
1
 10
10.4166666666666661
 20
3.5833333333333335
 11
10.4166666666666661
 21
11.375
 72
1
 10
10.4166666666666661
 20
11.375
 11
8.1666633333333341
 21
11.375
 72
1
 10
8.1666633333333341
 20
11.375
 11
8.1666633333333341
 21
8.75
 72
1
 10
8.1666633333333341
 20
8.75
 11
7.9999966666666671
 21
8.75
 72
1
 10
7.9999966666666671
 20
8.75
 11
7.9999966666666671
 21
11.375
 72
1
 10
7.9999966666666671
 20
11.375
 11
0.1250000000000007
 21
11.375
 72
1
 10
0.1250000000000007
 20
11.375
 11
0.125
 21
0.125
 72
1
 10
0.125
 20
0.125
 11
10.5
 21
0.125
 72
1
 10
10.5
 20
0.125
 11
13.0833300000000001
 21
0.125
 72
1
 10
13.0833300000000001
 20
0.125
 11
13.0833300000000001
 21
-0.125
 72
1
 10
13.0833300000000001
 20
-0.125
 11
10.5
 21
-0.125
 72
1
 10
10.5
 20
-0.125
 11
-0.04167
 21
-0.125
 72
1
 10
-0.04167
 20
-0.125
 11
-0.04167
 21
-0.333333
 72
1
 10
-0.04167
 20
-0.333333
 11
-0.29167
 21
-0.333333
 72
1
 10
-0.29167
 20
-0.333333
 11
-0.29167
 21
0.0
 72
1
 10
-0.29167
 20
0.0
 11
-0.125
 21
0.0
 72
1
 10
-0.125
 20
0.0
 11
-0.1249999999999993
 21
11.625
 72
1
 10
-0.1249999999999993
 20
11.625
 11
10.5
 21
11.625
 72
1
 10
10.5
 20
11.625
 11
26.9583333333333321
 21
11.625
 72
1
 10
26.9583333333333321
 20
11.625
 11
26.9583333333333321
 21
11.8333329999999997
 72
1
 10
26.9583333333333321
 20
11.8333329999999997
 11
27.2916666666666679
 21
11.8333329999999997
 72
1
 10
27.2916666666666679
 20
11.8333329999999997
 11
27.2916666666666679
 21
11.625
 72
1
 10
27.2916666666666679
 20
11.625
 11
31.5833299999999966
 21
11.625
 72
1
 10
31.5833299999999966
 20
11.625
 11
31.5833299999999966
 21
11.375
 72
1
 10
31.5833299999999966
 20
11.375
 11
29.2916633333333287
 21
11.375
 72
1
 10
29.2916633333333287
 20
11.375
 11
29.2916633333333287
 21
4.5
 72
1
 10
29.2916633333333287
 20
4.5
 11
31.7916633333333287
 21
4.5
 72
1
 10
31.7916633333333287
 20
4.5
 11
31.7916633333333287
 21
2.8333333333333335
 72
1
 10
31.7916633333333287
 20
2.8333333333333335
 11
32.2083299999999966
 21
2.8333333333333335
 72
1
 10
32.2083299999999966
 20
2.8333333333333335
 11
32.2083299999999966
 21
2.6666666666666665
 72
1
 10
32.2083299999999966
 20
2.6666666666666665
 11
31.4583299999999966
 21
2.6666666666666665
 72
1
 10
31.4583299999999966
 20
2.6666666666666665
 11
31.4583299999999966
 21
2.8333333333333335
 72
1
 10
31.4583299999999966
 20
2.8333333333333335
 11
31.6249966666666644
 21
2.8333333333333335
 72
1
 10
31.6249966666666644
 20
2.8333333333333335
 11
31.6249966666666644
 21
4.3333333333333339
 72
1
 10
31.6249966666666644
 20
4.3333333333333339
 11
29.2916633333333287
 21
4.3333333333333339
 72
1
 10
29.2916633333333287
 20
4.3333333333333339
 11
29.2916633333333287
 21
2.8333333333333335
 72
1
 10
29.2916633333333287
 20
2.8333333333333335
 11
29.4583299999999966
 21
2.8333333333333335
 72
1
 10
29.4583299999999966
 20
2.8333333333333335
 11
29.4583299999999966
 21
2.6666666666666665
 72
1
 10
29.4583299999999966
 20
2.6666666666666665
 11
28.8749966666666644
 21
2.6666666666666665
 72
1
 10
28.8749966666666644
 20
2.6666666666666665
 11
28.8749966666666644
 21
2.8333333333333335
 72
1
 10
28.8749966666666644
 20
2.8333333333333335
 11
29.1249966666666644
 21
2.8333333333333335
 72
1
 10
29.1249966666666644
 20
2.8333333333333335
 11
29.1249966666666644
 21
11.375
 72
1
 10
29.1249966666666644
 20
11.375
 11
15.7916633333333341
 21
11.375
 72
1
 10
15.7916633333333341
 20
11.375
 11
15.7916633333333341
 21
2.8333333333333335
 72
1
 10
15.7916633333333341
 20
2.8333333333333335
 11
21.2916633333333323
 21
2.8333333333333335
 72
1
 10
21.2916633333333323
 20
2.8333333333333335
 11
21.2916633333333323
 21
5.1249999999999991
 72
1
 10
21.2916633333333323
 20
5.1249999999999991
 11
25.4583299999999966
 21
5.1249999999999991
 72
1
 10
25.4583299999999966
 20
5.1249999999999991
 11
25.4583299999999966
 21
4.958333333333333
 72
1
 10
25.4583299999999966
 20
4.958333333333333
 11
23.8333299999999966
 21
4.958333333333333
 72
1
 10
23.8333299999999966
 20
4.958333333333333
 11
23.8333299999999966
 21
2.8333333333333335
 72
1
 10
23.8333299999999966
 20
2.8333333333333335
 11
25.3749966666666644
 21
2.8333333333333335
 72
1
 10
25.3749966666666644
 20
2.8333333333333335
 11
25.3749966666666644
 21
2.9583333333333335
 72
1
 10
25.3749966666666644
 20
2.9583333333333335
 11
25.5416633333333287
 21
2.9583333333333335
 72
1
 10
25.5416633333333287
 20
2.9583333333333335
 11
25.5416633333333287
 21
2.8333333333333335
 72
1
 10
25.5416633333333287
 20
2.8333333333333335
 11
26.8749966666666644
 21
2.8333333333333335
 72
1
 10
26.8749966666666644
 20
2.8333333333333335
 11
26.8749966666666644
 21
2.6666666666666665
 72
1
 10
26.8749966666666644
 20
2.6666666666666665
 11
23.5416633333333323
 21
2.6666666666666665
 72
1
 10
23.5416633333333323
 20
2.6666666666666665
 11
23.5416633333333323
 21
2.8333333333333335
 72
1
 10
23.5416633333333323
 20
2.8333333333333335
 11
23.6666633333333323
 21
2.8333333333333335
 72
1
 10
23.6666633333333323
 20
2.8333333333333335
 11
23.6666633333333323
 21
4.958333333333333
 72
1
 10
23.6666633333333323
 20
4.958333333333333
 11
21.4583299999999966
 21
4.958333333333333
 72
1
 10
21.4583299999999966
 20
4.958333333333333
 11
21.4583299999999966
 21
2.8333333333333335
 72
1
 10
21.4583299999999966
 20
2.8333333333333335
 11
21.5416633333333323
 21
2.8333333333333335
 72
1
 10
21.5416633333333323
 20
2.8333333333333335
 11
21.5416633333333323
 21
2.6666666666666665
 72
1
 10
21.5416633333333323
 20
2.6666666666666665
 11
15.7083300000000001
 21
2.6666666666666665
 72
1
 10
15.7083300000000001
 20
2.6666666666666665
 11
15.3333300000000001
 21
2.6666666666666665
 72
1
 10
15.3333300000000001
 20
2.6666666666666665
 11
15.3333300000000001
 21
2.8333333333333335
 72
1
 10
15.3333300000000001
 20
2.8333333333333335
 11
15.6249966666666662
 21
2.8333333333333335
 72
1
 10
15.6249966666666662
 20
2.8333333333333335
 11
15.6249966666666662
 21
11.375
 72
1
 10
15.6249966666666662
 20
11.375
 11
10.5833333333333339
 21
11.375
 72
1
 10
10.5833333333333339
 20
11.375
 11
10.5833333333333339
 21
2.8333333333333335
 72
1
 10
10.5833333333333339
 20
2.8333333333333335
 11
13.3333300000000001
 21
2.8333333333333335
 72
1
 10
13.3333300000000001
 20
2.8333333333333335
 11
13.3333300000000001
 21
2.6666666666666665
 72
1
 10
13.3333300000000001
 20
2.6666666666666665
 11
10.5833333333333339
 21
2.6666666666666665
 72
1
 10
10.5833333333333339
 20
2.6666666666666665
 11
10.5833333333333339
 21
2.1666669999999999
 72
1
 10
10.5833333333333339
 20
2.1666669999999999
 11
10.4166666666666661
 21
2.1666669999999999
 97
0
 75
0
 76
1
 52
0.0
 41
0.1
 77
0
 78
1
 53
45.0
 43
0.0
 44
0.0
 45
-0.0883883476483184
 46
0.0883883476483185
 79
0
 98
0
  0
HATCH
  5
4B
  8
0
 62
256
370
-1
  6
ByLayer
100
AcDbEntity
100
AcDbHatch
 10
0.0
 20
0.0
 30
0.0
210
0.0
220
0.0
230
1.0
  2
ansi31
 70
0
 71
0
 91
1
 92
1
 93
8
 72
1
 10
37.2916666666666643
 20
14.4999996666666657
 11
37.2916666666666643
 21
18.1666666666666679
 72
1
 10
37.2916666666666643
 20
18.1666666666666679
 11
26.9583333333333321
 21
18.1666666666666679
 72
1
 10
26.9583333333333321
 20
18.1666666666666679
 11
26.9583333333333321
 21
14.4999996666666657
 72
1
 10
26.9583333333333321
 20
14.4999996666666657
 11
27.2916666666666679
 21
14.4999996666666657
 72
1
 10
27.2916666666666679
 20
14.4999996666666657
 11
27.2916666666666679
 21
17.8333333333333321
 72
1
 10
27.2916666666666679
 20
17.8333333333333321
 11
36.9583333333333357
 21
17.8333333333333321
 72
1
 10
36.9583333333333357
 20
17.8333333333333321
 11
36.9583333333333357
 21
14.4999996666666657
 72
1
 10
36.9583333333333357
 20
14.4999996666666657
 11
37.2916666666666643
 21
14.4999996666666657
 97
0
 75
0
 76
1
 52
0.0
 41
0.1
 77
0
 78
1
 53
45.0
 43
0.0
 44
0.0
 45
-0.0883883476483184
 46
0.0883883476483185
 79
0
 98
0
  0
LINE
  5
4C
100
AcDbEntity
100
AcDbLine
  8
0
 62
256
370
-1
  6
CONTINUOUS
 10
46.9166633333333323
 20
11.5
 30
0.0
 11
46.9166633333333323
 21
5.5
 31
0.0
  0
LINE
  5
4D
100
AcDbEntity
100
AcDbLine
  8
0
 62
256
370
-1
  6
DOT
 10
63.6666999999999987
 20
0.0
 30
0.0
 11
63.6666999999999987
 21
-12.0
 31
0.0
  0
LINE
  5
4E
100
AcDbEntity
100
AcDbLine
  8
0
 62
256
370
-1
  6
DOT
 10
34.1666999999999987
 20
-12.0
 30
0.0
 11
63.6666999999999987
 21
-12.0
 31
0.0
  0
MTEXT
  5
4F
100
AcDbEntity
100
AcDbMText
  8
roomnumber
 62
256
370
35
  6
CONTINUOUS
 10
31.6416000000016062
 20
15.2576000000007745
 30
0.0
 40
1.0
 41
100.0
 71
1
 72
2
  1
10
  7
normallatin1
 50
0.0
 73
0
 44
1.0
  0
MTEXT
  5
50
100
AcDbEntity
100
AcDbMText
  8
roomnumber
 62
256
370
35
  6
CONTINUOUS
 10
23.3472000000011839
 20
1.7408000000000883
 30
0.0
 40
1.0
 41
100.0
 71
1
 72
2
  1
0
  7
normallatin1
 50
0.0
 73
0
 44
1.0
  0
ARC
  5
51
100
AcDbEntity
  8
roomnumber
 62
256
370
35
  6
CONTINUOUS
100
AcDbCircle
 10
32.4420636160017324
 20
15.1497870848008311
 30
0.0
 40
0.5
100
AcDbArc
 50
0.0
 51
90.0
  0
LINE
  5
52
100
AcDbEntity
100
AcDbLine
  8
roomnumber
 62
256
370
35
  6
CONTINUOUS
 10
32.9420636160017324
 20
15.1497870848008311
 30
0.0
 11
32.9420636160017324
 21
14.3714021888007402
 31
0.0
  0
ARC
  5
53
100
AcDbEntity
  8
roomnumber
 62
256
370
35
  6
CONTINUOUS
100
AcDbCircle
 10
32.4420636160017324
 20
14.3714021888007402
 30
0.0
 40
0.5
100
AcDbArc
 50
270.0
 51
0.0
  0
LINE
  5
54
100
AcDbEntity
100
AcDbLine
  8
roomnumber
 62
256
370
35
  6
CONTINUOUS
 10
32.4420636160017324
 20
13.8714021888007402
 30
0.0
 11
31.9321141760016545
 21
13.8714021888007402
 31
0.0
  0
ARC
  5
55
100
AcDbEntity
  8
roomnumber
 62
256
370
35
  6
CONTINUOUS
100
AcDbCircle
 10
31.9321141760016545
 20
14.3714021888007402
 30
0.0
 40
0.5
100
AcDbArc
 50
180.0
 51
270.0
  0
LINE
  5
56
100
AcDbEntity
100
AcDbLine
  8
roomnumber
 62
256
370
35
  6
CONTINUOUS
 10
31.4321141760016545
 20
14.3714021888007402
 30
0.0
 11
31.4321141760016545
 21
15.1497870848008311
 31
0.0
  0
LINE
  5
57
100
AcDbEntity
100
AcDbLine
  8
roomnumber
 62
256
370
35
  6
CONTINUOUS
 10
31.9321141760016545
 20
15.6497870848008311
 30
0.0
 11
32.4420636160017324
 21
15.6497870848008311
 31
0.0
  0
ARC
  5
58
100
AcDbEntity
  8
roomnumber
 62
256
370
35
  6
CONTINUOUS
100
AcDbCircle
 10
31.9321141760016545
 20
15.1497870848008311
 30
0.0
 40
0.5
100
AcDbArc
 50
90.0
 51
180.0
  0
ARC
  5
59
100
AcDbEntity
  8
roomnumber
 62
256
370
35
  6
CONTINUOUS
100
AcDbCircle
 10
23.8121192960012458
 20
1.624467404800094
 30
0.0
 40
0.5
100
AcDbArc
 50
0.0
 51
90.0
  0
LINE
  5
5A
100
AcDbEntity
100
AcDbLine
  8
roomnumber
 62
256
370
35
  6
CONTINUOUS
 10
24.3121192960012458
 20
1.624467404800094
 30
0.0
 11
24.3121192960012458
 21
0.846082508800003
 31
0.0
  0
ARC
  5
5B
100
AcDbEntity
  8
roomnumber
 62
256
370
35
  6
CONTINUOUS
100
AcDbCircle
 10
23.8121192960012458
 20
0.846082508800003
 30
0.0
 40
0.5
100
AcDbArc
 50
270.0
 51
0.0
  0
LINE
  5
5C
100
AcDbEntity
100
AcDbLine
  8
roomnumber
 62
256
370
35
  6
CONTINUOUS
 10
23.8121192960012458
 20
0.346082508800003
 30
0.0
 11
23.3021698560011679
 21
0.346082508800003
 31
0.0
  0
ARC
  5
5D
100
AcDbEntity
  8
roomnumber
 62
256
370
35
  6
CONTINUOUS
100
AcDbCircle
 10
23.3021698560011679
 20
0.846082508800003
 30
0.0
 40
0.5
100
AcDbArc
 50
180.0
 51
270.0
  0
LINE
  5
5E
100
AcDbEntity
100
AcDbLine
  8
roomnumber
 62
256
370
35
  6
CONTINUOUS
 10
22.8021698560011679
 20
0.846082508800003
 30
0.0
 11
22.8021698560011679
 21
1.624467404800094
 31
0.0
  0
LINE
  5
5F
100
AcDbEntity
100
AcDbLine
  8
roomnumber
 62
256
370
35
  6
CONTINUOUS
 10
23.3021698560011679
 20
2.124467404800094
 30
0.0
 11
23.8121192960012458
 21
2.124467404800094
 31
0.0
  0
ARC
  5
60
100
AcDbEntity
  8
roomnumber
 62
256
370
35
  6
CONTINUOUS
100
AcDbCircle
 10
23.3021698560011679
 20
1.624467404800094
 30
0.0
 40
0.5
100
AcDbArc
 50
90.0
 51
180.0
  0
LINE
  5
61
100
AcDbEntity
100
AcDbLine
  8
0
 62
256
370
35
  6
CONTINUOUS
 10
10.4166666666666661
 20
2.1666669999999999
 30
0.0
 11
10.4166666666666661
 21
2.75
 31
0.0
  0
LINE
  5
62
100
AcDbEntity
100
AcDbLine
  8
0
 62
256
370
35
  6
CONTINUOUS
 10
15.7083300000000001
 20
2.6666666666666665
 30
0.0
 11
21.5416633333333323
 21
2.6666666666666665
 31
0.0
  0
LINE
  5
63
100
AcDbEntity
100
AcDbLine
  8
0
 62
256
370
35
  6
CONTINUOUS
 10
15.3333300000000001
 20
2.6666666666666665
 30
0.0
 11
15.7083300000000001
 21
2.6666666666666665
 31
0.0
  0
LINE
  5
64
100
AcDbEntity
100
AcDbLine
  8
0
 62
256
370
35
  6
CONTINUOUS
 10
23.5416633333333323
 20
2.6666666666666665
 30
0.0
 11
26.8749966666666644
 21
2.6666666666666665
 31
0.0
  0
LINE
  5
65
100
AcDbEntity
100
AcDbLine
  8
0
 62
256
370
35
  6
CONTINUOUS
 10
28.8749966666666644
 20
2.6666666666666665
 30
0.0
 11
29.4583299999999966
 21
2.6666666666666665
 31
0.0
  0
LINE
  5
66
100
AcDbEntity
100
AcDbLine
  8
0
 62
256
370
35
  6
CONTINUOUS
 10
31.4583299999999966
 20
2.6666666666666665
 30
0.0
 11
32.2083299999999966
 21
2.6666666666666665
 31
0.0
  0
LINE
  5
67
100
AcDbEntity
100
AcDbLine
  8
0
 62
256
370
35
  6
CONTINUOUS
 10
37.1666633333333323
 20
0.125
 30
0.0
 11
38.3333299999999966
 21
0.125
 31
0.0
  0
LINE
  5
68
100
AcDbEntity
100
AcDbLine
  8
0
 62
256
370
35
  6
CONTINUOUS
 10
37.1666633333333323
 20
-0.125
 30
0.0
 11
38.3333299999999966
 21
-0.125
 31
0.0
  0
LINE
  5
69
100
AcDbEntity
100
AcDbLine
  8
0
 62
256
370
35
  6
CONTINUOUS
 10
15.7499966666666662
 20
0.125
 30
0.0
 11
34.499996666666668
 21
0.125
 31
0.0
  0
LINE
  5
6A
100
AcDbEntity
100
AcDbLine
  8
0
 62
256
370
35
  6
CONTINUOUS
 10
10.5
 20
0.125
 30
0.0
 11
13.0833300000000001
 21
0.125
 31
0.0
  0
LINE
  5
6B
100
AcDbEntity
100
AcDbLine
  8
0
 62
256
370
35
  6
CONTINUOUS
 10
10.5
 20
-0.125
 30
0.0
 11
13.0833300000000001
 21
-0.125
 31
0.0
  0
LINE
  5
6C
100
AcDbEntity
100
AcDbLine
  8
0
 62
256
370
35
  6
CONTINUOUS
 10
-0.3333366666666667
 20
-2.9999996666666666
 30
0.0
 11
-0.3333366666666668
 21
-3.7499996666666666
 31
0.0
  0
LINE
  5
6D
100
AcDbEntity
100
AcDbLine
  8
outline
 62
256
370
-1
  6
CONTINUOUS
 10
26.875
 20
2.75
 30
0.0
 11
25.4583000000000013
 21
2.75
 31
0.0
  0
LINE
  5
6E
100
AcDbEntity
100
AcDbLine
  8
outline
 62
256
370
-1
  6
CONTINUOUS
 10
13.0832999999999995
 20
0.0
 30
0.0
 11
-0.16667
 21
0.0
 31
0.0
  0
LINE
  5
6F
100
AcDbEntity
100
AcDbLine
  8
outline
 62
256
370
-1
  6
CONTINUOUS
 10
15.75
 20
0.0
 30
0.0
 11
21.9166999999999987
 21
0.0
 31
0.0
  0
LINE
  5
70
100
AcDbEntity
100
AcDbLine
  8
outline
 62
256
370
-1
  6
CONTINUOUS
 10
21.9166999999999987
 20
0.0
 30
0.0
 11
34.1666999999999987
 21
0.0
 31
0.0
  0
LINE
  5
71
100
AcDbEntity
100
AcDbLine
  8
outline
 62
256
370
-1
  6
CONTINUOUS
 10
10.5
 20
0.0
 30
0.0
 11
13.0832999999999995
 21
0.0
 31
0.0
  0
LINE
  5
72
100
AcDbEntity
100
AcDbLine
  8
outline
 62
256
370
-1
  6
CONTINUOUS
 10
34.2083000000000013
 20
11.5
 30
0.0
 11
37.125
 21
11.5
 31
0.0
  0
LINE
  5
73
100
AcDbEntity
100
AcDbLine
  8
0
 62
256
370
35
  6
CONTINUOUS
 10
-0.125
 20
0.0
 30
0.0
 11
-0.1249999999999993
 21
11.625
 31
0.0
  0
LINE
  5
74
100
AcDbEntity
100
AcDbLine
  8
0
 62
256
370
35
  6
CONTINUOUS
 10
-0.1249999999999993
 20
11.625
 30
0.0
 11
10.5
 21
11.625
 31
0.0
  0
LINE
  5
75
100
AcDbEntity
100
AcDbLine
  8
0
 62
256
370
35
  6
CONTINUOUS
 10
8.1666633333333341
 20
3.75
 30
0.0
 11
8.1666633333333341
 21
3.5833333333333335
 31
0.0
  0
LINE
  5
76
100
AcDbEntity
100
AcDbLine
  8
0
 62
256
370
35
  6
CONTINUOUS
 10
7.9999966666666671
 20
3.75
 30
0.0
 11
7.9999966666666671
 21
3.4166666666666665
 31
0.0
  0
LINE
  5
77
100
AcDbEntity
100
AcDbLine
  8
outline
 62
256
370
-1
  6
CONTINUOUS
 10
15.3332999999999995
 20
2.75
 30
0.0
 11
15.7082999999999995
 21
2.75
 31
0.0
  0
LINE
  5
78
100
AcDbEntity
100
AcDbLine
  8
0
 62
256
370
35
  6
CONTINUOUS
 10
21.2916633333333323
 20
5.1249999999999991
 30
0.0
 11
25.4583299999999966
 21
5.1249999999999991
 31
0.0
  0
LINE
  5
79
100
AcDbEntity
100
AcDbLine
  8
0
 62
256
370
35
  6
CONTINUOUS
 10
34.2083299999999966
 20
2.6666666666666665
 30
0.0
 11
34.624996666666668
 21
2.6666666666666665
 31
0.0
  0
LINE
  5
7A
100
AcDbEntity
100
AcDbLine
  8
0
 62
256
370
35
  6
CONTINUOUS
 10
34.2083299999999966
 20
2.8333333333333335
 30
0.0
 11
34.4583299999999966
 21
2.8333333333333335
 31
0.0
  0
LINE
  5
7B
100
AcDbEntity
100
AcDbLine
  8
0
 62
256
370
35
  6
CONTINUOUS
 10
36.6666633333333323
 20
3.0
 30
0.0
 11
36.999996666666668
 21
3.0
 31
0.0
  0
LINE
  5
7C
100
AcDbEntity
100
AcDbLine
  8
0
 62
256
370
35
  6
CONTINUOUS
 10
36.999996666666668
 20
3.0
 30
0.0
 11
36.999996666666668
 21
5.0833366666666668
 31
0.0
  0
LINE
  5
7D
100
AcDbEntity
100
AcDbLine
  8
0
 62
256
370
35
  6
CONTINUOUS
 10
36.6666633333333323
 20
3.166666666666667
 30
0.0
 11
36.8333299999999966
 21
3.166666666666667
 31
0.0
  0
LINE
  5
7E
100
AcDbEntity
100
AcDbLine
  8
0
 62
256
370
35
  6
CONTINUOUS
 10
36.8333299999999966
 20
3.166666666666667
 30
0.0
 11
36.8333299999999966
 21
4.9166700000000008
 31
0.0
  0
LINE
  5
7F
100
AcDbEntity
100
AcDbLine
  8
0
 62
256
370
35
  6
CONTINUOUS
 10
44.3333299999999966
 20
0.125
 30
0.0
 11
63.5416633333333323
 21
0.125
 31
0.0
  0
LINE
  5
80
100
AcDbEntity
100
AcDbLine
  8
0
 62
256
370
35
  6
CONTINUOUS
 10
63.5416633333333323
 20
0.125
 30
0.0
 11
63.5416633333333323
 21
11.375
 31
0.0
  0
LINE
  5
81
100
AcDbEntity
100
AcDbLine
  8
0
 62
256
370
35
  6
CONTINUOUS
 10
44.3333299999999966
 20
-0.125
 30
0.0
 11
63.7916633333333323
 21
-0.125
 31
0.0
  0
LINE
  5
82
100
AcDbEntity
100
AcDbLine
  8
0
 62
256
370
35
  6
CONTINUOUS
 10
63.7916633333333323
 20
-0.125
 30
0.0
 11
63.7916633333333323
 21
11.625
 31
0.0
  0
LINE
  5
83
100
AcDbEntity
100
AcDbLine
  8
0
 62
256
370
35
  6
CONTINUOUS
 10
37.2916666666666643
 20
14.4999996666666657
 30
0.0
 11
37.2916666666666643
 21
18.1666666666666679
 31
0.0
  0
LINE
  5
84
100
AcDbEntity
100
AcDbLine
  8
0
 62
256
370
35
  6
CONTINUOUS
 10
36.9583333333333357
 20
14.4999996666666657
 30
0.0
 11
36.9583333333333357
 21
17.8333333333333321
 31
0.0
  0
LINE
  5
85
100
AcDbEntity
100
AcDbLine
  8
0
 62
256
370
35
  6
CONTINUOUS
 10
26.9583333333333321
 20
18.1666666666666679
 30
0.0
 11
26.9583333333333321
 21
14.4999996666666657
 31
0.0
  0
LINE
  5
86
100
AcDbEntity
100
AcDbLine
  8
0
 62
256
370
35
  6
CONTINUOUS
 10
37.2916666666666643
 20
18.1666666666666679
 30
0.0
 11
26.9583333333333321
 21
18.1666666666666679
 31
0.0
  0
LINE
  5
87
100
AcDbEntity
100
AcDbLine
  8
0
 62
256
370
35
  6
CONTINUOUS
 10
27.2916666666666679
 20
17.8333333333333321
 30
0.0
 11
27.2916666666666679
 21
14.4999996666666657
 31
0.0
  0
LINE
  5
88
100
AcDbEntity
100
AcDbLine
  8
0
 62
256
370
35
  6
CONTINUOUS
 10
36.9583333333333357
 20
17.8333333333333321
 30
0.0
 11
27.2916666666666679
 21
17.8333333333333321
 31
0.0
  0
LINE
  5
89
100
AcDbEntity
100
AcDbLine
  8
0
 62
256
370
35
  6
CONTINUOUS
 10
4.5416633333333332
 20
-3.5833330000000001
 30
0.0
 11
5.2916633333333332
 21
-3.5833330000000001
 31
0.0
  0
LINE
  5
8A
100
AcDbEntity
100
AcDbLine
  8
0
 62
256
370
35
  6
CONTINUOUS
 10
4.5416633333333332
 20
-3.9166663333333331
 30
0.0
 11
4.9583299999999992
 21
-3.9166663333333331
 31
0.0
  0
LINE
  5
8B
100
AcDbEntity
100
AcDbLine
  8
0
 62
256
370
35
  6
CONTINUOUS
 10
0.125
 20
0.125
 30
0.0
 11
10.5
 21
0.125
 31
0.0
  0
LINE
  5
8C
100
AcDbEntity
100
AcDbLine
  8
0
 62
256
370
35
  6
CONTINUOUS
 10
0.125
 20
0.125
 30
0.0
 11
0.1250000000000007
 21
11.375
 31
0.0
  0
LINE
  5
8D
100
AcDbEntity
100
AcDbLine
  8
0
 62
256
370
35
  6
CONTINUOUS
 10
-0.3333366666666673
 20
-12.1666666666666661
 30
0.0
 11
24.3333333333333321
 21
-12.1666666666666661
 31
0.0
  0
LINE
  5
8E
100
AcDbEntity
100
AcDbLine
  8
0
 62
256
370
35
  6
CONTINUOUS
 10
-0.3333366666666668
 20
-3.7499996666666666
 30
0.0
 11
-0.3333366666666673
 21
-12.1666666666666661
 31
0.0
  0
LINE
  5
8F
100
AcDbEntity
100
AcDbLine
  8
0
 62
256
370
35
  6
CONTINUOUS
 10
24.3333333333333321
 20
-12.1666666666666661
 30
0.0
 11
34.3333333333333286
 21
-12.1666666666666661
 31
0.0
  0
LINE
  5
90
100
AcDbEntity
100
AcDbLine
  8
0
 62
256
370
35
  6
CONTINUOUS
 10
34.3333333333333286
 20
-3.0
 30
0.0
 11
34.3333333333333286
 21
-12.1666666666666661
 31
0.0
  0
LINE
  5
91
100
AcDbEntity
100
AcDbLine
  8
0
 62
256
370
35
  6
CONTINUOUS
 10
24.3333333333333321
 20
-11.8333333333333339
 30
0.0
 11
34.0
 21
-11.8333333333333339
 31
0.0
  0
LINE
  5
92
100
AcDbEntity
100
AcDbLine
  8
0
 62
256
370
35
  6
CONTINUOUS
 10
34.0
 20
-3.0
 30
0.0
 11
34.0
 21
-11.8333333333333339
 31
0.0
  0
LINE
  5
93
100
AcDbEntity
100
AcDbLine
  8
0
 62
256
370
35
  6
CONTINUOUS
 10
-0.0000033333333335
 20
-3.5833330000000001
 30
0.0
 11
1.9999966666666664
 21
-3.5833330000000001
 31
0.0
  0
LINE
  5
94
100
AcDbEntity
100
AcDbLine
  8
0
 62
256
370
35
  6
CONTINUOUS
 10
-0.0000033333333335
 20
-3.9166663333333331
 30
0.0
 11
1.9999966666666664
 21
-3.9166663333333331
 31
0.0
  0
LINE
  5
95
100
AcDbEntity
100
AcDbLine
  8
0
 62
256
370
35
  6
CONTINUOUS
 10
4.9583299999999992
 20
-3.9166663333333331
 30
0.0
 11
4.9583299999999992
 21
-11.8333333333333339
 31
0.0
  0
LINE
  5
96
100
AcDbEntity
100
AcDbLine
  8
0
 62
256
370
35
  6
CONTINUOUS
 10
5.2916633333333332
 20
-3.5833330000000001
 30
0.0
 11
5.2916633333333332
 21
-11.8333333333333339
 31
0.0
  0
LINE
  5
97
100
AcDbEntity
100
AcDbLine
  8
0
 62
256
370
35
  6
CONTINUOUS
 10
21.7499999999999964
 20
-2.8333333333333335
 30
0.0
 11
21.7499999999999964
 21
-11.8333333333333339
 31
0.0
  0
LINE
  5
98
100
AcDbEntity
100
AcDbLine
  8
0
 62
256
370
35
  6
CONTINUOUS
 10
22.0833333333333321
 20
-7.2499966666666671
 30
0.0
 11
24.3333333333333321
 21
-7.2499966666666671
 31
0.0
  0
LINE
  5
99
100
AcDbEntity
100
AcDbLine
  8
0
 62
256
370
35
  6
CONTINUOUS
 10
22.0833333333333321
 20
-7.583330000000001
 30
0.0
 11
24.3333333333333321
 21
-7.583330000000001
 31
0.0
  0
LINE
  5
9A
100
AcDbEntity
100
AcDbLine
  8
0
 62
256
370
35
  6
CONTINUOUS
 10
34.0
 20
-0.125
 30
0.0
 11
34.0
 21
-0.3333333333333333
 31
0.0
  0
LINE
  5
9B
100
AcDbEntity
100
AcDbLine
  8
0
 62
256
370
35
  6
CONTINUOUS
 10
34.3333333333333286
 20
-0.125
 30
0.0
 11
34.3333333333333286
 21
-0.3333333333333334
 31
0.0
  0
LINE
  5
9C
100
AcDbEntity
100
AcDbLine
  8
0
 62
256
370
35
  6
CONTINUOUS
 10
7.9999966666666671
 20
11.375
 30
0.0
 11
7.9999966666666671
 21
8.75
 31
0.0
  0
LINE
  5
9D
100
AcDbEntity
100
AcDbLine
  8
0
 62
256
370
35
  6
CONTINUOUS
 10
8.1666633333333341
 20
11.375
 30
0.0
 11
8.1666633333333341
 21
8.75
 31
0.0
  0
LINE
  5
9E
100
AcDbEntity
100
AcDbLine
  8
0
 62
256
370
35
  6
CONTINUOUS
 10
8.1666633333333341
 20
3.5833333333333335
 30
0.0
 11
10.4166666666666661
 21
3.5833333333333335
 31
0.0
  0
LINE
  5
9F
100
AcDbEntity
100
AcDbLine
  8
0
 62
256
370
35
  6
CONTINUOUS
 10
7.9999966666666671
 20
3.4166666666666665
 30
0.0
 11
10.4166666666666661
 21
3.4166666666666665
 31
0.0
  0
LINE
  5
A0
100
AcDbEntity
100
AcDbLine
  8
0
 62
256
370
35
  6
CONTINUOUS
 10
10.5833333333333339
 20
2.8333333333333335
 30
0.0
 11
13.3333300000000001
 21
2.8333333333333335
 31
0.0
  0
LINE
  5
A1
100
AcDbEntity
100
AcDbLine
  8
0
 62
256
370
35
  6
CONTINUOUS
 10
15.7916633333333341
 20
2.8333333333333335
 30
0.0
 11
15.7916633333333341
 21
11.375
 31
0.0
  0
LINE
  5
A2
100
AcDbEntity
100
AcDbLine
  8
0
 62
256
370
35
  6
CONTINUOUS
 10
15.6249966666666662
 20
2.8333333333333335
 30
0.0
 11
15.6249966666666662
 21
11.375
 31
0.0
  0
LINE
  5
A3
100
AcDbEntity
100
AcDbLine
  8
0
 62
256
370
35
  6
CONTINUOUS
 10
21.2916633333333323
 20
2.8333333333333335
 30
0.0
 11
21.2916633333333323
 21
5.1249999999999991
 31
0.0
  0
LINE
  5
A4
100
AcDbEntity
100
AcDbLine
  8
0
 62
256
370
35
  6
CONTINUOUS
 10
21.4583299999999966
 20
2.8333333333333335
 30
0.0
 11
21.4583299999999966
 21
4.958333333333333
 31
0.0
  0
LINE
  5
A5
100
AcDbEntity
100
AcDbLine
  8
0
 62
256
370
35
  6
CONTINUOUS
 10
25.3749966666666644
 20
2.8333333333333335
 30
0.0
 11
25.3749966666666644
 21
2.9583333333333335
 31
0.0
  0
LINE
  5
A6
100
AcDbEntity
100
AcDbLine
  8
0
 62
256
370
35
  6
CONTINUOUS
 10
25.5416633333333287
 20
2.8333333333333335
 30
0.0
 11
25.5416633333333287
 21
2.9583333333333335
 31
0.0
  0
LINE
  5
A7
100
AcDbEntity
100
AcDbLine
  8
0
 62
256
370
35
  6
CONTINUOUS
 10
23.8333299999999966
 20
2.8333333333333335
 30
0.0
 11
23.8333299999999966
 21
4.958333333333333
 31
0.0
  0
LINE
  5
A8
100
AcDbEntity
100
AcDbLine
  8
0
 62
256
370
35
  6
CONTINUOUS
 10
23.6666633333333323
 20
2.8333333333333335
 30
0.0
 11
23.6666633333333323
 21
4.958333333333333
 31
0.0
  0
LINE
  5
A9
100
AcDbEntity
100
AcDbLine
  8
0
 62
256
370
35
  6
CONTINUOUS
 10
29.2916633333333287
 20
4.5
 30
0.0
 11
31.7916633333333287
 21
4.5
 31
0.0
  0
LINE
  5
AA
100
AcDbEntity
100
AcDbLine
  8
0
 62
256
370
35
  6
CONTINUOUS
 10
29.2916633333333287
 20
4.3333333333333339
 30
0.0
 11
31.6249966666666644
 21
4.3333333333333339
 31
0.0
  0
LINE
  5
AB
100
AcDbEntity
100
AcDbLine
  8
0
 62
256
370
35
  6
CONTINUOUS
 10
31.6249966666666644
 20
4.3333333333333339
 30
0.0
 11
31.6249966666666644
 21
2.8333333333333335
 31
0.0
  0
LINE
  5
AC
100
AcDbEntity
100
AcDbLine
  8
0
 62
256
370
35
  6
CONTINUOUS
 10
31.7916633333333287
 20
4.5
 30
0.0
 11
31.7916633333333287
 21
2.8333333333333335
 31
0.0
  0
LINE
  5
AD
100
AcDbEntity
100
AcDbLine
  8
0
 62
256
370
35
  6
CONTINUOUS
 10
34.624996666666668
 20
3.166666666666667
 30
0.0
 11
34.6666633333333323
 21
3.166666666666667
 31
0.0
  0
LINE
  5
AE
100
AcDbEntity
100
AcDbLine
  8
0
 62
256
370
35
  6
CONTINUOUS
 10
34.624996666666668
 20
3.0
 30
0.0
 11
34.6666633333333323
 21
3.0
 31
0.0
  0
LINE
  5
AF
100
AcDbEntity
100
AcDbLine
  8
0
 62
256
370
35
  6
CONTINUOUS
 10
36.999996666666668
 20
5.0833366666666668
 30
0.0
 11
34.624996666666668
 21
5.0833366666666668
 31
0.0
  0
LINE
  5
B0
100
AcDbEntity
100
AcDbLine
  8
0
 62
256
370
35
  6
CONTINUOUS
 10
36.8333299999999966
 20
4.9166700000000008
 30
0.0
 11
34.624996666666668
 21
4.9166700000000008
 31
0.0
  0
LINE
  5
B1
100
AcDbEntity
100
AcDbLine
  8
0
 62
256
370
35
  6
CONTINUOUS
 10
34.4583299999999966
 20
2.8333333333333335
 30
0.0
 11
34.4583299999999966
 21
11.375
 31
0.0
  0
LINE
  5
B2
100
AcDbEntity
100
AcDbLine
  8
0
 62
256
370
35
  6
CONTINUOUS
 10
36.9583333333333357
 20
11.625
 30
0.0
 11
36.9583333333333357
 21
11.8333329999999997
 31
0.0
  0
LINE
  5
B3
100
AcDbEntity
100
AcDbLine
  8
0
 62
256
370
35
  6
CONTINUOUS
 10
37.2916666666666643
 20
11.625
 30
0.0
 11
37.2916666666666643
 21
11.8333329999999997
 31
0.0
  0
LINE
  5
B4
100
AcDbEntity
100
AcDbLine
  8
0
 62
256
370
35
  6
CONTINUOUS
 10
26.9583333333333321
 20
11.8333329999999997
 30
0.0
 11
26.9583333333333321
 21
11.625
 31
0.0
  0
LINE
  5
B5
100
AcDbEntity
100
AcDbLine
  8
0
 62
256
370
35
  6
CONTINUOUS
 10
27.2916666666666679
 20
11.8333329999999997
 30
0.0
 11
27.2916666666666679
 21
11.625
 31
0.0
  0
LINE
  5
B6
100
AcDbEntity
100
AcDbLine
  8
0
 62
256
370
35
  6
CONTINUOUS
 10
29.1249966666666644
 20
2.8333333333333335
 30
0.0
 11
29.1249966666666644
 21
11.375
 31
0.0
  0
LINE
  5
B7
100
AcDbEntity
100
AcDbLine
  8
0
 62
256
370
35
  6
CONTINUOUS
 10
10.4166666666666661
 20
0.125
 30
0.0
 11
10.4166666666666661
 21
0.166667
 31
0.0
  0
LINE
  5
B8
100
AcDbEntity
100
AcDbLine
  8
0
 62
256
370
35
  6
CONTINUOUS
 10
10.5833333333333339
 20
0.125
 30
0.0
 11
10.5833333333333339
 21
0.166667
 31
0.0
  0
LINE
  5
B9
100
AcDbEntity
100
AcDbLine
  8
0
 62
256
370
35
  6
CONTINUOUS
 10
21.7499999999999964
 20
-0.125
 30
0.0
 11
21.7499999999999964
 21
-0.3333333333333333
 31
0.0
  0
LINE
  5
BA
100
AcDbEntity
100
AcDbLine
  8
0
 62
256
370
35
  6
CONTINUOUS
 10
22.0833333333333321
 20
-0.125
 30
0.0
 11
22.0833333333333321
 21
-0.3333333333333334
 31
0.0
  0
LINE
  5
BB
100
AcDbEntity
100
AcDbLine
  8
outline
 62
256
370
-1
  6
CONTINUOUS
 10
-0.16667
 20
0.0
 30
0.0
 11
-0.16667
 21
-0.333333
 31
0.0
  0
LINE
  5
BC
100
AcDbEntity
100
AcDbLine
  8
0
 62
256
370
35
  6
CONTINUOUS
 10
-0.29167
 20
0.0
 30
0.0
 11
-0.29167
 21
-0.333333
 31
0.0
  0
LINE
  5
BD
100
AcDbEntity
100
AcDbLine
  8
0
 62
256
370
35
  6
CONTINUOUS
 10
-0.04167
 20
-0.125
 30
0.0
 11
10.5
 21
-0.125
 31
0.0
  0
LINE
  5
BE
100
AcDbEntity
100
AcDbLine
  8
0
 62
256
370
35
  6
CONTINUOUS
 10
-0.04167
 20
-0.125
 30
0.0
 11
-0.04167
 21
-0.333333
 31
0.0
  0
LINE
  5
BF
100
AcDbEntity
100
AcDbLine
  8
0
 62
256
370
35
  6
CONTINUOUS
 10
-0.125
 20
0.0
 30
0.0
 11
-0.29167
 21
0.0
 31
0.0
  0
LINE
  5
C0
100
AcDbEntity
100
AcDbLine
  8
0
 62
256
370
35
  6
CONTINUOUS
 10
-0.3333366666666667
 20
-2.9999996666666666
 30
0.0
 11
-0.0000033333333334
 21
-2.9999996666666666
 31
0.0
  0
LINE
  5
C1
100
AcDbEntity
100
AcDbLine
  8
0
 62
256
370
35
  6
CONTINUOUS
 10
1.9999966666666664
 20
-3.5833330000000001
 30
0.0
 11
1.9999966666666664
 21
-3.9166663333333331
 31
0.0
  0
LINE
  5
C2
100
AcDbEntity
100
AcDbLine
  8
0
 62
256
370
35
  6
CONTINUOUS
 10
4.5416633333333332
 20
-3.5833330000000001
 30
0.0
 11
4.5416633333333332
 21
-3.9166663333333331
 31
0.0
  0
LINE
  5
C3
100
AcDbEntity
100
AcDbLine
  8
0
 62
256
370
35
  6
CONTINUOUS
 10
-0.29167
 20
-0.333333
 30
0.0
 11
-0.04167
 21
-0.333333
 31
0.0
  0
LINE
  5
C4
100
AcDbEntity
100
AcDbLine
  8
0
 62
256
370
35
  6
CONTINUOUS
 10
24.3333333333333321
 20
-7.2499966666666671
 30
0.0
 11
24.3333333333333321
 21
-7.583330000000001
 31
0.0
  0
LINE
  5
C5
100
AcDbEntity
100
AcDbLine
  8
0
 62
256
370
35
  6
CONTINUOUS
 10
21.7499999999999964
 20
-2.8333333333333335
 30
0.0
 11
22.0833333333333321
 21
-2.8333333333333335
 31
0.0
  0
LINE
  5
C6
100
AcDbEntity
100
AcDbLine
  8
0
 62
256
370
35
  6
CONTINUOUS
 10
21.7499999999999964
 20
-0.3333333333333333
 30
0.0
 11
22.0833333333333321
 21
-0.3333333333333334
 31
0.0
  0
LINE
  5
C7
100
AcDbEntity
100
AcDbLine
  8
0
 62
256
370
35
  6
CONTINUOUS
 10
15.7499966666666662
 20
0.125
 30
0.0
 11
15.7499966666666662
 21
-0.125
 31
0.0
  0
LINE
  5
C8
100
AcDbEntity
100
AcDbLine
  8
0
 62
256
370
35
  6
CONTINUOUS
 10
13.0833300000000001
 20
0.125
 30
0.0
 11
13.0833300000000001
 21
-0.125
 31
0.0
  0
LINE
  5
C9
100
AcDbEntity
100
AcDbLine
  8
0
 62
256
370
35
  6
CONTINUOUS
 10
7.9999966666666671
 20
8.75
 30
0.0
 11
8.1666633333333341
 21
8.75
 31
0.0
  0
LINE
  5
CA
100
AcDbEntity
100
AcDbLine
  8
0
 62
256
370
35
  6
CONTINUOUS
 10
7.9999966666666671
 20
3.75
 30
0.0
 11
8.1666633333333341
 21
3.75
 31
0.0
  0
LINE
  5
CB
100
AcDbEntity
100
AcDbLine
  8
0
 62
256
370
35
  6
CONTINUOUS
 10
10.4166666666666661
 20
0.166667
 30
0.0
 11
10.5833333333333339
 21
0.166667
 31
0.0
  0
LINE
  5
CC
100
AcDbEntity
100
AcDbLine
  8
0
 62
256
370
35
  6
CONTINUOUS
 10
10.4166666666666661
 20
2.1666669999999999
 30
0.0
 11
10.5833333333333339
 21
2.1666669999999999
 31
0.0
  0
LINE
  5
CD
100
AcDbEntity
100
AcDbLine
  8
0
 62
256
370
35
  6
CONTINUOUS
 10
13.3333300000000001
 20
2.8333333333333335
 30
0.0
 11
13.3333300000000001
 21
2.6666666666666665
 31
0.0
  0
LINE
  5
CE
100
AcDbEntity
100
AcDbLine
  8
0
 62
256
370
35
  6
CONTINUOUS
 10
15.3333300000000001
 20
2.8333333333333335
 30
0.0
 11
15.3333300000000001
 21
2.6666666666666665
 31
0.0
  0
LINE
  5
CF
100
AcDbEntity
100
AcDbLine
  8
0
 62
256
370
35
  6
CONTINUOUS
 10
21.5416633333333323
 20
2.8333333333333335
 30
0.0
 11
21.5416633333333323
 21
2.6666666666666665
 31
0.0
  0
LINE
  5
D0
100
AcDbEntity
100
AcDbLine
  8
0
 62
256
370
35
  6
CONTINUOUS
 10
23.5416633333333323
 20
2.8333333333333335
 30
0.0
 11
23.5416633333333323
 21
2.6666666666666665
 31
0.0
  0
LINE
  5
D1
100
AcDbEntity
100
AcDbLine
  8
0
 62
256
370
35
  6
CONTINUOUS
 10
25.4583299999999966
 20
5.1249999999999991
 30
0.0
 11
25.4583299999999966
 21
4.958333333333333
 31
0.0
  0
LINE
  5
D2
100
AcDbEntity
100
AcDbLine
  8
0
 62
256
370
35
  6
CONTINUOUS
 10
25.3749966666666644
 20
2.9583333333333335
 30
0.0
 11
25.5416633333333287
 21
2.9583333333333335
 31
0.0
  0
LINE
  5
D3
100
AcDbEntity
100
AcDbLine
  8
0
 62
256
370
35
  6
CONTINUOUS
 10
26.8749966666666644
 20
2.8333333333333335
 30
0.0
 11
26.8749966666666644
 21
2.6666666666666665
 31
0.0
  0
LINE
  5
D4
100
AcDbEntity
100
AcDbLine
  8
0
 62
256
370
35
  6
CONTINUOUS
 10
28.8749966666666644
 20
2.8333333333333335
 30
0.0
 11
28.8749966666666644
 21
2.6666666666666665
 31
0.0
  0
LINE
  5
D5
100
AcDbEntity
100
AcDbLine
  8
0
 62
256
370
35
  6
CONTINUOUS
 10
29.4583299999999966
 20
2.8333333333333335
 30
0.0
 11
29.4583299999999966
 21
2.6666666666666665
 31
0.0
  0
LINE
  5
D6
100
AcDbEntity
100
AcDbLine
  8
0
 62
256
370
35
  6
CONTINUOUS
 10
31.4583299999999966
 20
2.8333333333333335
 30
0.0
 11
31.4583299999999966
 21
2.6666666666666665
 31
0.0
  0
LINE
  5
D7
100
AcDbEntity
100
AcDbLine
  8
0
 62
256
370
35
  6
CONTINUOUS
 10
32.2083299999999966
 20
2.8333333333333335
 30
0.0
 11
32.2083299999999966
 21
2.6666666666666665
 31
0.0
  0
LINE
  5
D8
100
AcDbEntity
100
AcDbLine
  8
0
 62
256
370
35
  6
CONTINUOUS
 10
34.2083299999999966
 20
2.8333333333333335
 30
0.0
 11
34.2083299999999966
 21
2.6666666666666665
 31
0.0
  0
LINE
  5
D9
100
AcDbEntity
100
AcDbLine
  8
0
 62
256
370
35
  6
CONTINUOUS
 10
34.6666633333333323
 20
3.166666666666667
 30
0.0
 11
34.6666633333333323
 21
3.0
 31
0.0
  0
LINE
  5
DA
100
AcDbEntity
100
AcDbLine
  8
0
 62
256
370
35
  6
CONTINUOUS
 10
34.2083299999999966
 20
11.625
 30
0.0
 11
34.2083299999999966
 21
11.375
 31
0.0
  0
LINE
  5
DB
100
AcDbEntity
100
AcDbLine
  8
0
 62
256
370
35
  6
CONTINUOUS
 10
31.5833299999999966
 20
11.625
 30
0.0
 11
31.5833299999999966
 21
11.375
 31
0.0
  0
LINE
  5
DC
100
AcDbEntity
100
AcDbLine
  8
0
 62
256
370
35
  6
CONTINUOUS
 10
26.9583333333333321
 20
14.4999996666666657
 30
0.0
 11
27.2916666666666679
 21
14.4999996666666657
 31
0.0
  0
LINE
  5
DD
100
AcDbEntity
100
AcDbLine
  8
0
 62
256
370
35
  6
CONTINUOUS
 10
26.9583333333333321
 20
11.8333329999999997
 30
0.0
 11
27.2916666666666679
 21
11.8333329999999997
 31
0.0
  0
LINE
  5
DE
100
AcDbEntity
100
AcDbLine
  8
0
 62
256
370
35
  6
CONTINUOUS
 10
36.9583333333333357
 20
14.4999996666666657
 30
0.0
 11
37.2916666666666643
 21
14.4999996666666657
 31
0.0
  0
LINE
  5
DF
100
AcDbEntity
100
AcDbLine
  8
0
 62
256
370
35
  6
CONTINUOUS
 10
36.9583333333333357
 20
11.8333329999999997
 30
0.0
 11
37.2916666666666643
 21
11.8333329999999997
 31
0.0
  0
LINE
  5
E0
100
AcDbEntity
100
AcDbLine
  8
0
 62
256
370
35
  6
CONTINUOUS
 10
36.6666633333333323
 20
3.166666666666667
 30
0.0
 11
36.6666633333333323
 21
3.0
 31
0.0
  0
LINE
  5
E1
100
AcDbEntity
100
AcDbLine
  8
0
 62
256
370
35
  6
CONTINUOUS
 10
34.499996666666668
 20
0.125
 30
0.0
 11
34.499996666666668
 21
-0.125
 31
0.0
  0
LINE
  5
E2
100
AcDbEntity
100
AcDbLine
  8
0
 62
256
370
35
  6
CONTINUOUS
 10
34.0
 20
-0.3333333333333333
 30
0.0
 11
34.3333333333333286
 21
-0.3333333333333334
 31
0.0
  0
LINE
  5
E3
100
AcDbEntity
100
AcDbLine
  8
0
 62
256
370
35
  6
CONTINUOUS
 10
34.0
 20
-3.0
 30
0.0
 11
34.3333333333333286
 21
-3.0
 31
0.0
  0
LINE
  5
E4
100
AcDbEntity
100
AcDbLine
  8
0
 62
256
370
35
  6
CONTINUOUS
 10
37.1666633333333323
 20
0.125
 30
0.0
 11
37.1666633333333323
 21
-0.125
 31
0.0
  0
LINE
  5
E5
100
AcDbEntity
100
AcDbLine
  8
0
 62
256
370
35
  6
CONTINUOUS
 10
38.3333299999999966
 20
0.125
 30
0.0
 11
38.3333299999999966
 21
-0.125
 31
0.0
  0
LINE
  5
E6
100
AcDbEntity
100
AcDbLine
  8
0
 62
256
370
35
  6
CONTINUOUS
 10
44.3333299999999966
 20
0.125
 30
0.0
 11
44.3333299999999966
 21
-0.125
 31
0.0
  0
LINE
  5
E7
100
AcDbEntity
100
AcDbLine
  8
0
 62
256
370
35
  6
CONTINUOUS
 10
0.1250000000000007
 20
11.375
 30
0.0
 11
7.9999966666666671
 21
11.375
 31
0.0
  0
LINE
  5
E8
100
AcDbEntity
100
AcDbLine
  8
0
 62
256
370
35
  6
CONTINUOUS
 10
8.1666633333333341
 20
11.375
 30
0.0
 11
10.4166666666666661
 21
11.375
 31
0.0
  0
LINE
  5
E9
100
AcDbEntity
100
AcDbLine
  8
0
 62
256
370
35
  6
CONTINUOUS
 10
10.5833333333333339
 20
11.375
 30
0.0
 11
15.6249966666666662
 21
11.375
 31
0.0
  0
LINE
  5
EA
100
AcDbEntity
100
AcDbLine
  8
0
 62
256
370
35
  6
CONTINUOUS
 10
10.4166666666666661
 20
3.5833333333333335
 30
0.0
 11
10.4166666666666661
 21
11.375
 31
0.0
  0
LINE
  5
EB
100
AcDbEntity
100
AcDbLine
  8
0
 62
256
370
35
  6
CONTINUOUS
 10
10.4166666666666661
 20
2.75
 30
0.0
 11
10.4166666666666661
 21
3.4166666666666665
 31
0.0
  0
LINE
  5
EC
100
AcDbEntity
100
AcDbLine
  8
0
 62
256
370
35
  6
CONTINUOUS
 10
10.5833333333333339
 20
2.8333333333333335
 30
0.0
 11
10.5833333333333339
 21
11.375
 31
0.0
  0
LINE
  5
ED
100
AcDbEntity
100
AcDbLine
  8
0
 62
256
370
35
  6
CONTINUOUS
 10
15.3333300000000001
 20
2.8333333333333335
 30
0.0
 11
15.6249966666666662
 21
2.8333333333333335
 31
0.0
  0
LINE
  5
EE
100
AcDbEntity
100
AcDbLine
  8
0
 62
256
370
35
  6
CONTINUOUS
 10
15.7916633333333341
 20
2.8333333333333335
 30
0.0
 11
21.2916633333333323
 21
2.8333333333333335
 31
0.0
  0
LINE
  5
EF
100
AcDbEntity
100
AcDbLine
  8
0
 62
256
370
35
  6
CONTINUOUS
 10
21.4583299999999966
 20
2.8333333333333335
 30
0.0
 11
21.5416633333333323
 21
2.8333333333333335
 31
0.0
  0
LINE
  5
F0
100
AcDbEntity
100
AcDbLine
  8
0
 62
256
370
35
  6
CONTINUOUS
 10
23.8333299999999966
 20
4.958333333333333
 30
0.0
 11
25.4583299999999966
 21
4.958333333333333
 31
0.0
  0
LINE
  5
F1
100
AcDbEntity
100
AcDbLine
  8
0
 62
256
370
35
  6
CONTINUOUS
 10
21.4583299999999966
 20
4.958333333333333
 30
0.0
 11
23.6666633333333323
 21
4.958333333333333
 31
0.0
  0
LINE
  5
F2
100
AcDbEntity
100
AcDbLine
  8
0
 62
256
370
35
  6
CONTINUOUS
 10
23.5416633333333323
 20
2.8333333333333335
 30
0.0
 11
23.6666633333333323
 21
2.8333333333333335
 31
0.0
  0
LINE
  5
F3
100
AcDbEntity
100
AcDbLine
  8
0
 62
256
370
35
  6
CONTINUOUS
 10
23.8333299999999966
 20
2.8333333333333335
 30
0.0
 11
25.3749966666666644
 21
2.8333333333333335
 31
0.0
  0
LINE
  5
F4
100
AcDbEntity
100
AcDbLine
  8
0
 62
256
370
35
  6
CONTINUOUS
 10
25.5416633333333287
 20
2.8333333333333335
 30
0.0
 11
26.8749966666666644
 21
2.8333333333333335
 31
0.0
  0
LINE
  5
F5
100
AcDbEntity
100
AcDbLine
  8
0
 62
256
370
35
  6
CONTINUOUS
 10
29.2916633333333287
 20
4.5
 30
0.0
 11
29.2916633333333287
 21
11.375
 31
0.0
  0
LINE
  5
F6
100
AcDbEntity
100
AcDbLine
  8
0
 62
256
370
35
  6
CONTINUOUS
 10
29.2916633333333287
 20
2.8333333333333335
 30
0.0
 11
29.2916633333333287
 21
4.3333333333333339
 31
0.0
  0
LINE
  5
F7
100
AcDbEntity
100
AcDbLine
  8
0
 62
256
370
35
  6
CONTINUOUS
 10
28.8749966666666644
 20
2.8333333333333335
 30
0.0
 11
29.1249966666666644
 21
2.8333333333333335
 31
0.0
  0
LINE
  5
F8
100
AcDbEntity
100
AcDbLine
  8
0
 62
256
370
35
  6
CONTINUOUS
 10
29.2916633333333287
 20
2.8333333333333335
 30
0.0
 11
29.4583299999999966
 21
2.8333333333333335
 31
0.0
  0
LINE
  5
F9
100
AcDbEntity
100
AcDbLine
  8
0
 62
256
370
35
  6
CONTINUOUS
 10
31.4583299999999966
 20
2.8333333333333335
 30
0.0
 11
31.6249966666666644
 21
2.8333333333333335
 31
0.0
  0
LINE
  5
FA
100
AcDbEntity
100
AcDbLine
  8
0
 62
256
370
35
  6
CONTINUOUS
 10
31.7916633333333287
 20
2.8333333333333335
 30
0.0
 11
32.2083299999999966
 21
2.8333333333333335
 31
0.0
  0
LINE
  5
FB
100
AcDbEntity
100
AcDbLine
  8
0
 62
256
370
35
  6
CONTINUOUS
 10
34.624996666666668
 20
2.6666666666666665
 30
0.0
 11
34.624996666666668
 21
3.0
 31
0.0
  0
LINE
  5
FC
100
AcDbEntity
100
AcDbLine
  8
0
 62
256
370
35
  6
CONTINUOUS
 10
34.624996666666668
 20
5.0833366666666668
 30
0.0
 11
34.624996666666668
 21
11.375
 31
0.0
  0
LINE
  5
FD
100
AcDbEntity
100
AcDbLine
  8
0
 62
256
370
35
  6
CONTINUOUS
 10
34.624996666666668
 20
3.166666666666667
 30
0.0
 11
34.624996666666668
 21
4.9166700000000008
 31
0.0
  0
LINE
  5
FE
100
AcDbEntity
100
AcDbLine
  8
0
 62
256
370
35
  6
CONTINUOUS
 10
34.624996666666668
 20
11.375
 30
0.0
 11
63.5416633333333323
 21
11.375
 31
0.0
  0
LINE
  5
FF
100
AcDbEntity
100
AcDbLine
  8
0
 62
256
370
35
  6
CONTINUOUS
 10
34.2083299999999966
 20
11.375
 30
0.0
 11
34.4583299999999966
 21
11.375
 31
0.0
  0
LINE
  5
100
100
AcDbEntity
100
AcDbLine
  8
0
 62
256
370
35
  6
CONTINUOUS
 10
15.7916633333333341
 20
11.375
 30
0.0
 11
29.1249966666666644
 21
11.375
 31
0.0
  0
LINE
  5
101
100
AcDbEntity
100
AcDbLine
  8
0
 62
256
370
35
  6
CONTINUOUS
 10
29.2916633333333287
 20
11.375
 30
0.0
 11
31.5833299999999966
 21
11.375
 31
0.0
  0
LINE
  5
102
100
AcDbEntity
100
AcDbLine
  8
0
 62
256
370
35
  6
CONTINUOUS
 10
37.2916666666666643
 20
11.625
 30
0.0
 11
63.7916633333333323
 21
11.625
 31
0.0
  0
LINE
  5
103
100
AcDbEntity
100
AcDbLine
  8
0
 62
256
370
35
  6
CONTINUOUS
 10
34.2083299999999966
 20
11.625
 30
0.0
 11
36.9583333333333357
 21
11.625
 31
0.0
  0
LINE
  5
104
100
AcDbEntity
100
AcDbLine
  8
0
 62
256
370
35
  6
CONTINUOUS
 10
10.5
 20
11.625
 30
0.0
 11
26.9583333333333321
 21
11.625
 31
0.0
  0
LINE
  5
105
100
AcDbEntity
100
AcDbLine
  8
0
 62
256
370
35
  6
CONTINUOUS
 10
27.2916666666666679
 20
11.625
 30
0.0
 11
31.5833299999999966
 21
11.625
 31
0.0
  0
LINE
  5
106
100
AcDbEntity
100
AcDbLine
  8
0
 62
256
370
35
  6
CONTINUOUS
 10
34.3333333333333286
 20
-0.125
 30
0.0
 11
34.499996666666668
 21
-0.125
 31
0.0
  0
LINE
  5
107
100
AcDbEntity
100
AcDbLine
  8
0
 62
256
370
35
  6
CONTINUOUS
 10
15.7499966666666662
 20
-0.125
 30
0.0
 11
21.7499999999999964
 21
-0.125
 31
0.0
  0
LINE
  5
108
100
AcDbEntity
100
AcDbLine
  8
0
 62
256
370
35
  6
CONTINUOUS
 10
22.0833333333333321
 20
-0.125
 30
0.0
 11
34.0
 21
-0.125
 31
0.0
  0
LINE
  5
109
100
AcDbEntity
100
AcDbLine
  8
0
 62
256
370
35
  6
CONTINUOUS
 10
22.0833333333333321
 20
-2.8333333333333335
 30
0.0
 11
22.0833333333333321
 21
-7.2499966666666671
 31
0.0
  0
LINE
  5
10A
100
AcDbEntity
100
AcDbLine
  8
0
 62
256
370
35
  6
CONTINUOUS
 10
22.0833333333333321
 20
-7.583330000000001
 30
0.0
 11
22.0833333333333321
 21
-11.8333333333333339
 31
0.0
  0
LINE
  5
10B
100
AcDbEntity
100
AcDbLine
  8
0
 62
256
370
35
  6
CONTINUOUS
 10
22.0833333333333321
 20
-11.8333333333333339
 30
0.0
 11
24.3333333333333321
 21
-11.8333333333333339
 31
0.0
  0
LINE
  5
10C
100
AcDbEntity
100
AcDbLine
  8
0
 62
256
370
35
  6
CONTINUOUS
 10
-0.000003333333334
 20
-11.8333333333333339
 30
0.0
 11
4.9583299999999992
 21
-11.8333333333333339
 31
0.0
  0
LINE
  5
10D
100
AcDbEntity
100
AcDbLine
  8
0
 62
256
370
35
  6
CONTINUOUS
 10
5.2916633333333332
 20
-11.8333333333333339
 30
0.0
 11
21.7499999999999964
 21
-11.8333333333333339
 31
0.0
  0
LINE
  5
10E
100
AcDbEntity
100
AcDbLine
  8
0
 62
256
370
35
  6
CONTINUOUS
 10
-0.0000033333333335
 20
-3.9166663333333331
 30
0.0
 11
-0.000003333333334
 21
-11.8333333333333339
 31
0.0
  0
LINE
  5
10F
100
AcDbEntity
100
AcDbLine
  8
0
 62
256
370
35
  6
CONTINUOUS
 10
-0.0000033333333334
 20
-2.9999996666666666
 30
0.0
 11
-0.0000033333333335
 21
-3.5833330000000001
 31
0.0
  0
LINE
  5
110
100
AcDbEntity
100
AcDbLine
  8
0
 62
256
370
35
  6
CONTINUOUS
 10
10.5833333333333339
 20
2.6666666666666665
 30
0.0
 11
13.3333300000000001
 21
2.6666666666666665
 31
0.0
  0
LINE
  5
111
100
AcDbEntity
100
AcDbLine
  8
0
 62
256
370
-1
  6
ByLayer
 10
10.5833333333333339
 20
2.6666666666666665
 30
0.0
 11
10.5833333333333339
 21
2.1666669999999999
 31
0.0
  0
LINE
  5
112
100
AcDbEntity
100
AcDbLine
  8
0
 62
256
370
-1
  6
ByLayer
 10
44.3333299999999966
 20
0.0
 30
0.0
 11
38.3333299999999966
 21
0.0
 31
0.0
  0
LINE
  5
113
100
AcDbEntity
100
AcDbLine
  8
0
 62
256
370
-1
  6
ByLayer
 10
29.7916666666666643
 20
11.8333329999999997
 30
0.0
 11
27.125
 21
11.8333329999999997
 31
0.0
  0
LINE
  5
114
100
AcDbEntity
100
AcDbLine
  8
0
 62
256
370
-1
  6
ByLayer
 10
34.4583333333333357
 20
11.8333329999999997
 30
0.0
 11
37.125
 21
11.8333329999999997
 31
0.0
  0
LINE
  5
115
100
AcDbEntity
100
AcDbLine
  8
0
 62
256
370
-1
  6
ByLayer
 10
28.8749966666666644
 20
4.75
 30
0.0
 11
28.8749966666666644
 21
2.75
 31
0.0
  0
LINE
  5
116
100
AcDbEntity
100
AcDbLine
  8
0
 62
256
370
-1
  6
ByLayer
 10
15.3333300000000001
 20
4.75
 30
0.0
 11
15.3333300000000001
 21
2.75
 31
0.0
  0
LINE
  5
117
100
AcDbEntity
100
AcDbLine
  8
0
 62
256
370
-1
  6
ByLayer
 10
8.5
 20
0.1666670000000003
 30
0.0
 11
10.5
 21
0.166667
 31
0.0
  0
LINE
  5
118
100
AcDbEntity
100
AcDbLine
  8
0
 62
256
370
-1
  6
ByLayer
 10
4.5416633333333323
 20
-6.2916663333333336
 30
0.0
 11
4.5416633333333332
 21
-3.7499996666666666
 31
0.0
  0
LINE
  5
119
100
AcDbEntity
100
AcDbLine
  8
0
 62
256
370
-1
  6
ByLayer
 10
21.9166666666666643
 20
-0.3333333333333334
 30
0.0
 11
24.4166666666666643
 21
-0.333333333333334
 31
0.0
  0
LINE
  5
11A
100
AcDbEntity
100
AcDbLine
  8
0
 62
256
370
-1
  6
ByLayer
 10
34.1666666666666643
 20
-0.3333333333333334
 30
0.0
 11
31.4999999999999964
 21
-0.333333333333333
 31
0.0
  0
LINE
  5
11B
100
AcDbEntity
100
AcDbLine
  8
0
 62
256
370
-1
  6
ByLayer
 10
34.499996666666668
 20
0.0
 30
0.0
 11
34.499996666666668
 21
2.6666666666666643
 31
0.0
  0
ARC
  5
11C
100
AcDbEntity
  8
0
 62
256
370
-1
  6
ByLayer
100
AcDbCircle
 10
37.125
 20
11.8333329999999997
 30
0.0
 40
2.6666666666666643
100
AcDbArc
 50
90.0
 51
180.0
  0
ARC
  5
11D
100
AcDbEntity
  8
0
 62
256
370
-1
  6
ByLayer
100
AcDbCircle
 10
27.125
 20
11.8333329999999997
 30
0.0
 40
2.6666666666666643
100
AcDbArc
 50
0.0
 51
90.0
  0
ARC
  5
11E
100
AcDbEntity
  8
0
 62
256
370
-1
  6
ByLayer
100
AcDbCircle
 10
28.8749966666666644
 20
2.75
 30
0.0
 40
2.0
100
AcDbArc
 50
90.0
 51
180.0
  0
ARC
  5
11F
100
AcDbEntity
  8
0
 62
256
370
-1
  6
ByLayer
100
AcDbCircle
 10
15.3333300000000001
 20
2.75
 30
0.0
 40
2.0
100
AcDbArc
 50
90.0
 51
180.0
  0
ARC
  5
120
100
AcDbEntity
  8
0
 62
256
370
-1
  6
ByLayer
100
AcDbCircle
 10
10.5
 20
0.166667
 30
0.0
 40
2.0
100
AcDbArc
 50
90.0
 51
180.0
  0
ARC
  5
121
100
AcDbEntity
  8
0
 62
256
370
-1
  6
ByLayer
100
AcDbCircle
 10
4.5416633333333332
 20
-3.7499996666666666
 30
0.0
 40
2.541666666666667
100
AcDbArc
 50
180.0
 51
269.9999999999999432
  0
ARC
  5
122
100
AcDbEntity
  8
0
 62
256
370
-1
  6
ByLayer
100
AcDbCircle
 10
21.9166666666666643
 20
-0.3333333333333334
 30
0.0
 40
2.5
100
AcDbArc
 50
270.0
 51
360.0
  0
ARC
  5
123
100
AcDbEntity
  8
0
 62
256
370
-1
  6
ByLayer
100
AcDbCircle
 10
34.1666666666666643
 20
-0.3333333333333334
 30
0.0
 40
2.6666666666666665
100
AcDbArc
 50
180.0
 51
270.0
  0
ARC
  5
124
100
AcDbEntity
  8
0
 62
256
370
-1
  6
ByLayer
100
AcDbCircle
 10
34.499996666666668
 20
0.0
 30
0.0
 40
2.6666666666666643
100
AcDbArc
 50
0.0
 51
90.0
  0
LINE
  5
125
100
AcDbEntity
100
AcDbLine
  8
0
 62
256
370
-1
  6
ByLayer
 10
-0.16667
 20
-0.333333
 30
0.0
 11
2.4999966666666666
 21
-0.3333330000000007
 31
0.0
  0
ARC
  5
126
100
AcDbEntity
  8
0
 62
256
370
-1
  6
ByLayer
100
AcDbCircle
 10
-0.16667
 20
-0.333333
 30
0.0
 40
2.6666666666666665
100
AcDbArc
 50
270.0
 51
360.0
  0
LINE
  5
127
100
AcDbEntity
100
AcDbLine
  8
0
 62
256
370
-1
  6
ByLayer
 10
41.3333299999999966
 20
0.0
 30
0.0
 11
41.3333299999999966
 21
0.125
 31
0.0
  0
LINE
  5
128
100
AcDbEntity
100
AcDbLine
  8
0
 62
256
370
-1
  6
ByLayer
 10
38.3333299999999966
 20
0.125
 30
0.0
 11
41.3333299999999966
 21
0.125
 31
0.0
  0
LINE
  5
129
100
AcDbEntity
100
AcDbLine
  8
0
 62
256
370
-1
  6
ByLayer
 10
41.3333299999999966
 20
0.0
 30
0.0
 11
41.3333299999999966
 21
-0.125
 31
0.0
  0
LINE
  5
12A
100
AcDbEntity
100
AcDbLine
  8
0
 62
256
370
-1
  6
ByLayer
 10
44.3333299999999966
 20
-0.125
 30
0.0
 11
41.3333299999999966
 21
-0.125
 31
0.0
  0
LINE
  5
12B
100
AcDbEntity
100
AcDbLine
  8
0
 62
256
370
-1
  6
ByLayer
 10
21.5416633333333323
 20
2.75
 30
0.0
 11
21.8952167239266053
 21
2.396446609406726
 31
0.0
  0
LINE
  5
12C
100
AcDbEntity
100
AcDbLine
  8
0
 62
256
370
-1
  6
ByLayer
 10
29.4583299999999966
 20
2.75
 30
0.0
 11
29.8118833905932696
 21
2.396446609406726
 31
0.0
  0
LINE
  5
12D
100
AcDbEntity
100
AcDbLine
  8
0
 62
256
370
-1
  6
ByLayer
 10
21.8952167239266053
 20
2.396446609406726
 30
0.0
 11
22.2487701145198784
 21
2.75
 31
0.0
  0
LINE
  5
12E
100
AcDbEntity
100
AcDbLine
  8
0
 62
256
370
-1
  6
ByLayer
 10
29.8118833905932696
 20
2.396446609406726
 30
0.0
 11
30.1654367811865427
 21
2.75
 31
0.0
  0
LINE
  5
12F
100
AcDbEntity
100
AcDbLine
  8
0
 62
256
370
-1
  6
ByLayer
 10
22.8345565521467861
 20
2.75
 30
0.0
 11
23.1881099427400592
 21
2.396446609406726
 31
0.0
  0
LINE
  5
130
100
AcDbEntity
100
AcDbLine
  8
0
 62
256
370
-1
  6
ByLayer
 10
30.7512232188134504
 20
2.75
 30
0.0
 11
31.1047766094067235
 21
2.396446609406726
 31
0.0
  0
LINE
  5
131
100
AcDbEntity
100
AcDbLine
  8
0
 62
256
370
-1
  6
ByLayer
 10
23.1881099427400592
 20
2.396446609406726
 30
0.0
 11
23.5416633333333323
 21
2.75
 31
0.0
  0
LINE
  5
132
100
AcDbEntity
100
AcDbLine
  8
0
 62
256
370
-1
  6
ByLayer
 10
31.1047766094067235
 20
2.396446609406726
 30
0.0
 11
31.4583299999999966
 21
2.75
 31
0.0
  0
MTEXT
  5
133
100
AcDbEntity
100
AcDbMText
  8
roomnumber
 62
256
370
35
  6
CONTINUOUS
 10
12.7885565952010669
 20
7.897112025813156
 30
0.0
 40
1.0
 41
100.0
 71
1
 72
2
  1
2
  7
normallatin1
 50
0.0
 73
0
 44
1.0
  0
ARC
  5
134
100
AcDbEntity
  8
roomnumber
 62
256
370
35
  6
CONTINUOUS
100
AcDbCircle
 10
13.3002227200011482
 20
7.7452392578131875
 30
0.0
 40
0.5
100
AcDbArc
 50
0.0
 51
90.0
  0
LINE
  5
135
100
AcDbEntity
100
AcDbLine
  8
roomnumber
 62
256
370
35
  6
CONTINUOUS
 10
13.8002227200011482
 20
7.7452392578131875
 30
0.0
 11
13.8002227200011482
 21
6.9668543618130965
 31
0.0
  0
ARC
  5
136
100
AcDbEntity
  8
roomnumber
 62
256
370
35
  6
CONTINUOUS
100
AcDbCircle
 10
13.3002227200011482
 20
6.9668543618130965
 30
0.0
 40
0.5
100
AcDbArc
 50
270.0
 51
0.0
  0
LINE
  5
137
100
AcDbEntity
100
AcDbLine
  8
roomnumber
 62
256
370
35
  6
CONTINUOUS
 10
13.3002227200011482
 20
6.4668543618130965
 30
0.0
 11
12.7902732800010703
 21
6.4668543618130965
 31
0.0
  0
ARC
  5
138
100
AcDbEntity
  8
roomnumber
 62
256
370
35
  6
CONTINUOUS
100
AcDbCircle
 10
12.7902732800010703
 20
6.9668543618130965
 30
0.0
 40
0.5
100
AcDbArc
 50
180.0
 51
270.0
  0
LINE
  5
139
100
AcDbEntity
100
AcDbLine
  8
roomnumber
 62
256
370
35
  6
CONTINUOUS
 10
12.2902732800010703
 20
6.9668543618130965
 30
0.0
 11
12.2902732800010703
 21
7.7452392578131875
 31
0.0
  0
LINE
  5
13A
100
AcDbEntity
100
AcDbLine
  8
roomnumber
 62
256
370
35
  6
CONTINUOUS
 10
12.7902732800010703
 20
8.2452392578131875
 30
0.0
 11
13.3002227200011482
 21
8.2452392578131875
 31
0.0
  0
ARC
  5
13B
100
AcDbEntity
  8
roomnumber
 62
256
370
35
  6
CONTINUOUS
100
AcDbCircle
 10
12.7902732800010703
 20
7.7452392578131875
 30
0.0
 40
0.5
100
AcDbArc
 50
90.0
 51
180.0
  0
MTEXT
  5
13C
100
AcDbEntity
100
AcDbMText
  8
roomnumber
 62
256
370
35
  6
CONTINUOUS
 10
4.4221521920003868
 20
7.8761405058131686
 30
0.0
 40
1.0
 41
100.0
 71
1
 72
2
  1
3
  7
normallatin1
 50
0.0
 73
0
 44
1.0
  0
ARC
  5
13D
100
AcDbEntity
  8
roomnumber
 62
256
370
35
  6
CONTINUOUS
100
AcDbCircle
 10
4.8952307200004368
 20
7.7452392578131875
 30
0.0
 40
0.5
100
AcDbArc
 50
0.0
 51
90.0
  0
LINE
  5
13E
100
AcDbEntity
100
AcDbLine
  8
roomnumber
 62
256
370
35
  6
CONTINUOUS
 10
5.3952307200004368
 20
7.7452392578131875
 30
0.0
 11
5.3952307200004368
 21
6.9668543618130965
 31
0.0
  0
ARC
  5
13F
100
AcDbEntity
  8
roomnumber
 62
256
370
35
  6
CONTINUOUS
100
AcDbCircle
 10
4.8952307200004368
 20
6.9668543618130965
 30
0.0
 40
0.5
100
AcDbArc
 50
270.0
 51
0.0
  0
LINE
  5
140
100
AcDbEntity
100
AcDbLine
  8
roomnumber
 62
256
370
35
  6
CONTINUOUS
 10
4.8952307200004368
 20
6.4668543618130965
 30
0.0
 11
4.3852812800003589
 21
6.4668543618130965
 31
0.0
  0
ARC
  5
141
100
AcDbEntity
  8
roomnumber
 62
256
370
35
  6
CONTINUOUS
100
AcDbCircle
 10
4.3852812800003589
 20
6.9668543618130965
 30
0.0
 40
0.5
100
AcDbArc
 50
180.0
 51
270.0
  0
LINE
  5
142
100
AcDbEntity
100
AcDbLine
  8
roomnumber
 62
256
370
35
  6
CONTINUOUS
 10
3.8852812800003593
 20
6.9668543618130965
 30
0.0
 11
3.8852812800003593
 21
7.7452392578131875
 31
0.0
  0
LINE
  5
143
100
AcDbEntity
100
AcDbLine
  8
roomnumber
 62
256
370
35
  6
CONTINUOUS
 10
4.3852812800003589
 20
8.2452392578131875
 30
0.0
 11
4.8952307200004368
 21
8.2452392578131875
 31
0.0
  0
ARC
  5
144
100
AcDbEntity
  8
roomnumber
 62
256
370
35
  6
CONTINUOUS
100
AcDbCircle
 10
4.3852812800003589
 20
7.7452392578131875
 30
0.0
 40
0.5
100
AcDbArc
 50
90.0
 51
180.0
  0
MTEXT
  5
145
100
AcDbEntity
100
AcDbMText
  8
roomnumber
 62
256
370
-1
  6
CONTINUOUS
 10
22.2942986240018577
 20
7.8709107330131367
 30
0.0
 40
1.0
 41
100.0
 71
1
 72
2
  1
1
  7
normallatin1
 50
0.0
 73
0
 44
1.0
  0
ARC
  5
146
100
AcDbEntity
  8
roomnumber
 62
256
370
35
  6
CONTINUOUS
100
AcDbCircle
 10
22.724320000002006
 20
7.7452392578131875
 30
0.0
 40
0.5
100
AcDbArc
 50
0.0
 51
90.0
  0
LINE
  5
147
100
AcDbEntity
100
AcDbLine
  8
roomnumber
 62
256
370
35
  6
CONTINUOUS
 10
23.224320000002006
 20
7.7452392578131875
 30
0.0
 11
23.224320000002006
 21
6.9668543618130965
 31
0.0
  0
ARC
  5
148
100
AcDbEntity
  8
roomnumber
 62
256
370
35
  6
CONTINUOUS
100
AcDbCircle
 10
22.724320000002006
 20
6.9668543618130965
 30
0.0
 40
0.5
100
AcDbArc
 50
270.0
 51
0.0
  0
LINE
  5
149
100
AcDbEntity
100
AcDbLine
  8
roomnumber
 62
256
370
35
  6
CONTINUOUS
 10
22.724320000002006
 20
6.4668543618130965
 30
0.0
 11
22.2143705600019281
 21
6.4668543618130965
 31
0.0
  0
ARC
  5
14A
100
AcDbEntity
  8
roomnumber
 62
256
370
35
  6
CONTINUOUS
100
AcDbCircle
 10
22.2143705600019281
 20
6.9668543618130965
 30
0.0
 40
0.5
100
AcDbArc
 50
180.0
 51
270.0
  0
LINE
  5
14B
100
AcDbEntity
100
AcDbLine
  8
roomnumber
 62
256
370
35
  6
CONTINUOUS
 10
21.7143705600019281
 20
6.9668543618130965
 30
0.0
 11
21.7143705600019281
 21
7.7452392578131875
 31
0.0
  0
LINE
  5
14C
100
AcDbEntity
100
AcDbLine
  8
roomnumber
 62
256
370
35
  6
CONTINUOUS
 10
22.2143705600019281
 20
8.2452392578131875
 30
0.0
 11
22.724320000002006
 21
8.2452392578131875
 31
0.0
  0
ARC
  5
14D
100
AcDbEntity
  8
roomnumber
 62
256
370
35
  6
CONTINUOUS
100
AcDbCircle
 10
22.2143705600019281
 20
7.7452392578131875
 30
0.0
 40
0.5
100
AcDbArc
 50
90.0
 51
180.0
  0
MTEXT
  5
14E
100
AcDbEntity
100
AcDbMText
  8
roomnumber
 62
256
370
35
  6
CONTINUOUS
 10
31.6943892480028993
 20
7.8301145730131605
 30
0.0
 40
1.0
 41
100.0
 71
1
 72
2
  1
9
  7
normallatin1
 50
0.0
 73
0
 44
1.0
  0
ARC
  5
14F
100
AcDbEntity
  8
roomnumber
 62
256
370
35
  6
CONTINUOUS
100
AcDbCircle
 10
32.1827376640030067
 20
7.7452392578131875
 30
0.0
 40
0.5
100
AcDbArc
 50
0.0
 51
90.0
  0
LINE
  5
150
100
AcDbEntity
100
AcDbLine
  8
roomnumber
 62
256
370
35
  6
CONTINUOUS
 10
32.6827376640030067
 20
7.7452392578131875
 30
0.0
 11
32.6827376640030067
 21
6.9668543618130965
 31
0.0
  0
ARC
  5
151
100
AcDbEntity
  8
roomnumber
 62
256
370
35
  6
CONTINUOUS
100
AcDbCircle
 10
32.1827376640030067
 20
6.9668543618130965
 30
0.0
 40
0.5
100
AcDbArc
 50
270.0
 51
0.0
  0
LINE
  5
152
100
AcDbEntity
100
AcDbLine
  8
roomnumber
 62
256
370
35
  6
CONTINUOUS
 10
32.1827376640030067
 20
6.4668543618130965
 30
0.0
 11
31.6727882240029288
 21
6.4668543618130965
 31
0.0
  0
ARC
  5
153
100
AcDbEntity
  8
roomnumber
 62
256
370
35
  6
CONTINUOUS
100
AcDbCircle
 10
31.6727882240029288
 20
6.9668543618130965
 30
0.0
 40
0.5
100
AcDbArc
 50
180.0
 51
270.0
  0
LINE
  5
154
100
AcDbEntity
100
AcDbLine
  8
roomnumber
 62
256
370
35
  6
CONTINUOUS
 10
31.1727882240029288
 20
6.9668543618130965
 30
0.0
 11
31.1727882240029288
 21
7.7452392578131875
 31
0.0
  0
LINE
  5
155
100
AcDbEntity
100
AcDbLine
  8
roomnumber
 62
256
370
35
  6
CONTINUOUS
 10
31.6727882240029288
 20
8.2452392578131875
 30
0.0
 11
32.1827376640030067
 21
8.2452392578131875
 31
0.0
  0
ARC
  5
156
100
AcDbEntity
  8
roomnumber
 62
256
370
35
  6
CONTINUOUS
100
AcDbCircle
 10
31.6727882240029288
 20
7.7452392578131875
 30
0.0
 40
0.5
100
AcDbArc
 50
90.0
 51
180.0
  0
MTEXT
  5
157
100
AcDbEntity
100
AcDbMText
  8
roomnumber
 62
256
370
35
  6
CONTINUOUS
 10
41.6269271040038973
 20
7.7998041730131602
 30
0.0
 40
1.0
 41
100.0
 71
1
 72
2
  1
8
  7
normallatin1
 50
0.0
 73
0
 44
1.0
  0
ARC
  5
158
100
AcDbEntity
  8
roomnumber
 62
256
370
35
  6
CONTINUOUS
100
AcDbCircle
 10
42.1398515200040507
 20
7.7452392578131875
 30
0.0
 40
0.5
100
AcDbArc
 50
0.0
 51
90.0
  0
LINE
  5
159
100
AcDbEntity
100
AcDbLine
  8
roomnumber
 62
256
370
35
  6
CONTINUOUS
 10
42.6398515200040507
 20
7.7452392578131875
 30
0.0
 11
42.6398515200040507
 21
6.9668543618130965
 31
0.0
  0
ARC
  5
15A
100
AcDbEntity
  8
roomnumber
 62
256
370
35
  6
CONTINUOUS
100
AcDbCircle
 10
42.1398515200040507
 20
6.9668543618130965
 30
0.0
 40
0.5
100
AcDbArc
 50
270.0
 51
0.0
  0
LINE
  5
15B
100
AcDbEntity
100
AcDbLine
  8
roomnumber
 62
256
370
35
  6
CONTINUOUS
 10
42.1398515200040507
 20
6.4668543618130965
 30
0.0
 11
41.6299020800039727
 21
6.4668543618130965
 31
0.0
  0
ARC
  5
15C
100
AcDbEntity
  8
roomnumber
 62
256
370
35
  6
CONTINUOUS
100
AcDbCircle
 10
41.6299020800039727
 20
6.9668543618130965
 30
0.0
 40
0.5
100
AcDbArc
 50
180.0
 51
270.0
  0
LINE
  5
15D
100
AcDbEntity
100
AcDbLine
  8
roomnumber
 62
256
370
35
  6
CONTINUOUS
 10
41.1299020800039727
 20
6.9668543618130965
 30
0.0
 11
41.1299020800039727
 21
7.7452392578131875
 31
0.0
  0
LINE
  5
15E
100
AcDbEntity
100
AcDbLine
  8
roomnumber
 62
256
370
35
  6
CONTINUOUS
 10
41.6299020800039727
 20
8.2452392578131875
 30
0.0
 11
42.1398515200040507
 21
8.2452392578131875
 31
0.0
  0
ARC
  5
15F
100
AcDbEntity
  8
roomnumber
 62
256
370
35
  6
CONTINUOUS
100
AcDbCircle
 10
41.6299020800039727
 20
7.7452392578131875
 30
0.0
 40
0.5
100
AcDbArc
 50
90.0
 51
180.0
  0
MTEXT
  5
160
100
AcDbEntity
100
AcDbMText
  8
roomnumber
 62
256
370
35
  6
CONTINUOUS
 10
54.3298682880052155
 20
7.8391257730131638
 30
0.0
 40
1.0
 41
100.0
 71
1
 72
2
  1
7
  7
normallatin1
 50
0.0
 73
0
 44
1.0
  0
ARC
  5
161
100
AcDbEntity
  8
roomnumber
 62
256
370
35
  6
CONTINUOUS
100
AcDbCircle
 10
54.7641495040054167
 20
7.7452392578131875
 30
0.0
 40
0.5
100
AcDbArc
 50
0.0
 51
90.0
  0
LINE
  5
162
100
AcDbEntity
100
AcDbLine
  8
roomnumber
 62
256
370
35
  6
CONTINUOUS
 10
55.2641495040054167
 20
7.7452392578131875
 30
0.0
 11
55.2641495040054167
 21
6.9668543618130965
 31
0.0
  0
ARC
  5
163
100
AcDbEntity
  8
roomnumber
 62
256
370
35
  6
CONTINUOUS
100
AcDbCircle
 10
54.7641495040054167
 20
6.9668543618130965
 30
0.0
 40
0.5
100
AcDbArc
 50
270.0
 51
0.0
  0
LINE
  5
164
100
AcDbEntity
100
AcDbLine
  8
roomnumber
 62
256
370
35
  6
CONTINUOUS
 10
54.7641495040054167
 20
6.4668543618130965
 30
0.0
 11
54.2542000640053388
 21
6.4668543618130965
 31
0.0
  0
ARC
  5
165
100
AcDbEntity
  8
roomnumber
 62
256
370
35
  6
CONTINUOUS
100
AcDbCircle
 10
54.2542000640053388
 20
6.9668543618130965
 30
0.0
 40
0.5
100
AcDbArc
 50
180.0
 51
270.0
  0
LINE
  5
166
100
AcDbEntity
100
AcDbLine
  8
roomnumber
 62
256
370
35
  6
CONTINUOUS
 10
53.7542000640053388
 20
6.9668543618130965
 30
0.0
 11
53.7542000640053388
 21
7.7452392578131875
 31
0.0
  0
LINE
  5
167
100
AcDbEntity
100
AcDbLine
  8
roomnumber
 62
256
370
35
  6
CONTINUOUS
 10
54.2542000640053388
 20
8.2452392578131875
 30
0.0
 11
54.7641495040054167
 21
8.2452392578131875
 31
0.0
  0
ARC
  5
168
100
AcDbEntity
  8
roomnumber
 62
256
370
35
  6
CONTINUOUS
100
AcDbCircle
 10
54.2542000640053388
 20
7.7452392578131875
 30
0.0
 40
0.5
100
AcDbArc
 50
90.0
 51
180.0
  0
MTEXT
  5
169
100
AcDbEntity
100
AcDbMText
  8
roomnumber
 62
256
370
35
  6
CONTINUOUS
 10
2.2889584640003475
 20
-6.4582695616754533
 30
0.0
 40
1.0
 41
100.0
 71
1
 72
2
  1
5
  7
normallatin1
 50
0.0
 73
0
 44
1.0
  0
ARC
  5
16A
100
AcDbEntity
  8
roomnumber
 62
256
370
35
  6
CONTINUOUS
100
AcDbCircle
 10
2.7283187200002872
 20
-6.5534667968755045
 30
0.0
 40
0.5
100
AcDbArc
 50
0.0
 51
90.0
  0
LINE
  5
16B
100
AcDbEntity
100
AcDbLine
  8
roomnumber
 62
256
370
35
  6
CONTINUOUS
 10
3.2283187200002872
 20
-6.5534667968755045
 30
0.0
 11
3.2283187200002872
 21
-7.3318516928755955
 31
0.0
  0
ARC
  5
16C
100
AcDbEntity
  8
roomnumber
 62
256
370
35
  6
CONTINUOUS
100
AcDbCircle
 10
2.7283187200002872
 20
-7.3318516928755955
 30
0.0
 40
0.5
100
AcDbArc
 50
270.0
 51
0.0
  0
LINE
  5
16D
100
AcDbEntity
100
AcDbLine
  8
roomnumber
 62
256
370
35
  6
CONTINUOUS
 10
2.7283187200002872
 20
-7.8318516928755955
 30
0.0
 11
2.2183692800002093
 21
-7.8318516928755955
 31
0.0
  0
ARC
  5
16E
100
AcDbEntity
  8
roomnumber
 62
256
370
35
  6
CONTINUOUS
100
AcDbCircle
 10
2.2183692800002093
 20
-7.3318516928755955
 30
0.0
 40
0.5
100
AcDbArc
 50
180.0
 51
270.0
  0
LINE
  5
16F
100
AcDbEntity
100
AcDbLine
  8
roomnumber
 62
256
370
35
  6
CONTINUOUS
 10
1.7183692800002093
 20
-7.3318516928755955
 30
0.0
 11
1.7183692800002093
 21
-6.5534667968755045
 31
0.0
  0
LINE
  5
170
100
AcDbEntity
100
AcDbLine
  8
roomnumber
 62
256
370
35
  6
CONTINUOUS
 10
2.2183692800002093
 20
-6.0534667968755045
 30
0.0
 11
2.7283187200002872
 21
-6.0534667968755045
 31
0.0
  0
ARC
  5
171
100
AcDbEntity
  8
roomnumber
 62
256
370
35
  6
CONTINUOUS
100
AcDbCircle
 10
2.2183692800002093
 20
-6.5534667968755045
 30
0.0
 40
0.5
100
AcDbArc
 50
90.0
 51
180.0
  0
MTEXT
  5
172
100
AcDbEntity
100
AcDbMText
  8
roomnumber
 62
256
370
35
  6
CONTINUOUS
 10
13.1132375040013809
 20
-6.3219546816754484
 30
0.0
 40
1.0
 41
100.0
 71
1
 72
2
  1
4
  7
normallatin1
 50
0.0
 73
0
 44
1.0
  0
ARC
  5
173
100
AcDbEntity
  8
roomnumber
 62
256
370
35
  6
CONTINUOUS
100
AcDbCircle
 10
13.6679411200013927
 20
-6.5534667968755045
 30
0.0
 40
0.5
100
AcDbArc
 50
0.0
 51
90.0
  0
LINE
  5
174
100
AcDbEntity
100
AcDbLine
  8
roomnumber
 62
256
370
35
  6
CONTINUOUS
 10
14.1679411200013927
 20
-6.5534667968755045
 30
0.0
 11
14.1679411200013927
 21
-7.3318516928755955
 31
0.0
  0
ARC
  5
175
100
AcDbEntity
  8
roomnumber
 62
256
370
35
  6
CONTINUOUS
100
AcDbCircle
 10
13.6679411200013927
 20
-7.3318516928755955
 30
0.0
 40
0.5
100
AcDbArc
 50
270.0
 51
0.0
  0
LINE
  5
176
100
AcDbEntity
100
AcDbLine
  8
roomnumber
 62
256
370
35
  6
CONTINUOUS
 10
13.6679411200013927
 20
-7.8318516928755955
 30
0.0
 11
13.1579916800013148
 21
-7.8318516928755955
 31
0.0
  0
ARC
  5
177
100
AcDbEntity
  8
roomnumber
 62
256
370
35
  6
CONTINUOUS
100
AcDbCircle
 10
13.1579916800013148
 20
-7.3318516928755955
 30
0.0
 40
0.5
100
AcDbArc
 50
180.0
 51
270.0
  0
LINE
  5
178
100
AcDbEntity
100
AcDbLine
  8
roomnumber
 62
256
370
35
  6
CONTINUOUS
 10
12.6579916800013148
 20
-7.3318516928755955
 30
0.0
 11
12.6579916800013148
 21
-6.5534667968755045
 31
0.0
  0
LINE
  5
179
100
AcDbEntity
100
AcDbLine
  8
roomnumber
 62
256
370
35
  6
CONTINUOUS
 10
13.1579916800013148
 20
-6.0534667968755045
 30
0.0
 11
13.6679411200013927
 21
-6.0534667968755045
 31
0.0
  0
ARC
  5
17A
100
AcDbEntity
  8
roomnumber
 62
256
370
35
  6
CONTINUOUS
100
AcDbCircle
 10
13.1579916800013148
 20
-6.5534667968755045
 30
0.0
 40
0.5
100
AcDbArc
 50
90.0
 51
180.0
  0
MTEXT
  5
17B
100
AcDbEntity
100
AcDbMText
  8
roomnumber
 62
256
370
35
  6
CONTINUOUS
 10
28.2351984640028419
 20
-6.4268122816754589
 30
0.0
 40
1.0
 41
100.0
 71
1
 72
2
  1
6
  7
normallatin1
 50
0.0
 73
0
 44
1.0
  0
ARC
  5
17C
100
AcDbEntity
  8
roomnumber
 62
256
370
35
  6
CONTINUOUS
100
AcDbCircle
 10
28.7794163200029587
 20
-6.5534667968755045
 30
0.0
 40
0.5
100
AcDbArc
 50
0.0
 51
90.0
  0
LINE
  5
17D
100
AcDbEntity
100
AcDbLine
  8
roomnumber
 62
256
370
35
  6
CONTINUOUS
 10
29.2794163200029587
 20
-6.5534667968755045
 30
0.0
 11
29.2794163200029587
 21
-7.3318516928755955
 31
0.0
  0
ARC
  5
17E
100
AcDbEntity
  8
roomnumber
 62
256
370
35
  6
CONTINUOUS
100
AcDbCircle
 10
28.7794163200029587
 20
-7.3318516928755955
 30
0.0
 40
0.5
100
AcDbArc
 50
270.0
 51
0.0
  0
LINE
  5
17F
100
AcDbEntity
100
AcDbLine
  8
roomnumber
 62
256
370
35
  6
CONTINUOUS
 10
28.7794163200029587
 20
-7.8318516928755955
 30
0.0
 11
28.2694668800028808
 21
-7.8318516928755955
 31
0.0
  0
ARC
  5
180
100
AcDbEntity
  8
roomnumber
 62
256
370
35
  6
CONTINUOUS
100
AcDbCircle
 10
28.2694668800028808
 20
-7.3318516928755955
 30
0.0
 40
0.5
100
AcDbArc
 50
180.0
 51
270.0
  0
LINE
  5
181
100
AcDbEntity
100
AcDbLine
  8
roomnumber
 62
256
370
35
  6
CONTINUOUS
 10
27.7694668800028808
 20
-7.3318516928755955
 30
0.0
 11
27.7694668800028808
 21
-6.5534667968755045
 31
0.0
  0
LINE
  5
182
100
AcDbEntity
100
AcDbLine
  8
roomnumber
 62
256
370
35
  6
CONTINUOUS
 10
28.2694668800028808
 20
-6.0534667968755045
 30
0.0
 11
28.7794163200029587
 21
-6.0534667968755045
 31
0.0
  0
ARC
  5
183
100
AcDbEntity
  8
roomnumber
 62
256
370
35
  6
CONTINUOUS
100
AcDbCircle
 10
28.2694668800028808
 20
-6.5534667968755045
 30
0.0
 40
0.5
100
AcDbArc
 50
90.0
 51
180.0
  0
LINE
  5
184
100
AcDbEntity
100
AcDbLine
  8
registers
 62
256
370
-1
  6
ByLayer
 10
7.2423661226674563
 20
3.4852700160003631
 30
0.0
 11
7.5756994560007893
 21
3.4852700160003631
 31
0.0
  0
LINE
  5
185
100
AcDbEntity
100
AcDbLine
  8
registers
 62
256
370
-1
  6
ByLayer
 10
7.5756994560007893
 20
3.4852700160003631
 30
0.0
 11
7.5756994560007893
 21
4.3186033493336957
 31
0.0
  0
LINE
  5
186
100
AcDbEntity
100
AcDbLine
  8
registers
 62
256
370
-1
  6
ByLayer
 10
7.5756994560007893
 20
4.3186033493336957
 30
0.0
 11
7.2423661226674563
 21
4.3186033493336957
 31
0.0
  0
LINE
  5
187
100
AcDbEntity
100
AcDbLine
  8
registers
 62
256
370
-1
  6
ByLayer
 10
7.2423661226674563
 20
4.3186033493336957
 30
0.0
 11
7.2423661226674563
 21
3.4852700160003631
 31
0.0
  0
LINE
  5
188
100
AcDbEntity
100
AcDbLine
  8
registers
 62
256
370
-1
  6
ByLayer
 10
15.1001581226682902
 20
3.7698140160003937
 30
0.0
 11
15.4334914560016223
 21
3.7698140160003937
 31
0.0
  0
LINE
  5
189
100
AcDbEntity
100
AcDbLine
  8
registers
 62
256
370
-1
  6
ByLayer
 10
15.4334914560016223
 20
3.7698140160003937
 30
0.0
 11
15.4334914560016223
 21
4.6031473493337263
 31
0.0
  0
LINE
  5
18A
100
AcDbEntity
100
AcDbLine
  8
registers
 62
256
370
-1
  6
ByLayer
 10
15.4334914560016223
 20
4.6031473493337263
 30
0.0
 11
15.1001581226682902
 21
4.6031473493337263
 31
0.0
  0
LINE
  5
18B
100
AcDbEntity
100
AcDbLine
  8
registers
 62
256
370
-1
  6
ByLayer
 10
15.1001581226682902
 20
4.6031473493337263
 30
0.0
 11
15.1001581226682902
 21
3.7698140160003937
 31
0.0
  0
LINE
  5
18C
100
AcDbEntity
100
AcDbLine
  8
registers
 62
256
370
-1
  6
ByLayer
 10
16.0303981226683909
 20
3.8245340160003995
 30
0.0
 11
16.3637314560017231
 21
3.8245340160003995
 31
0.0
  0
LINE
  5
18D
100
AcDbEntity
100
AcDbLine
  8
registers
 62
256
370
-1
  6
ByLayer
 10
16.3637314560017231
 20
3.8245340160003995
 30
0.0
 11
16.3637314560017231
 21
4.6578673493337321
 31
0.0
  0
LINE
  5
18E
100
AcDbEntity
100
AcDbLine
  8
registers
 62
256
370
-1
  6
ByLayer
 10
16.3637314560017231
 20
4.6578673493337321
 30
0.0
 11
16.0303981226683909
 21
4.6578673493337321
 31
0.0
  0
LINE
  5
18F
100
AcDbEntity
100
AcDbLine
  8
registers
 62
256
370
-1
  6
ByLayer
 10
16.0303981226683909
 20
4.6578673493337321
 30
0.0
 11
16.0303981226683909
 21
3.8245340160003995
 31
0.0
  0
LINE
  5
190
100
AcDbEntity
100
AcDbLine
  8
registers
 62
256
370
-1
  6
ByLayer
 10
28.6433581226697811
 20
3.8518940160004029
 30
0.0
 11
28.9766914560031132
 21
3.8518940160004029
 31
0.0
  0
LINE
  5
191
100
AcDbEntity
100
AcDbLine
  8
registers
 62
256
370
-1
  6
ByLayer
 10
28.9766914560031132
 20
3.8518940160004029
 30
0.0
 11
28.9766914560031132
 21
4.6852273493337355
 31
0.0
  0
LINE
  5
192
100
AcDbEntity
100
AcDbLine
  8
registers
 62
256
370
-1
  6
ByLayer
 10
28.9766914560031132
 20
4.6852273493337355
 30
0.0
 11
28.6433581226697811
 21
4.6852273493337355
 31
0.0
  0
LINE
  5
193
100
AcDbEntity
100
AcDbLine
  8
registers
 62
256
370
-1
  6
ByLayer
 10
28.6433581226697811
 20
4.6852273493337355
 30
0.0
 11
28.6433581226697811
 21
3.8518940160004029
 31
0.0
  0
LINE
  5
194
100
AcDbEntity
100
AcDbLine
  8
registers
 62
256
370
-1
  6
ByLayer
 10
33.9238381226703609
 20
3.7971740160003971
 30
0.0
 11
34.2571714560036966
 21
3.7971740160003971
 31
0.0
  0
LINE
  5
195
100
AcDbEntity
100
AcDbLine
  8
registers
 62
256
370
-1
  6
ByLayer
 10
34.2571714560036966
 20
3.7971740160003971
 30
0.0
 11
34.2571714560036966
 21
4.6305073493337296
 31
0.0
  0
LINE
  5
196
100
AcDbEntity
100
AcDbLine
  8
registers
 62
256
370
-1
  6
ByLayer
 10
34.2571714560036966
 20
4.6305073493337296
 30
0.0
 11
33.9238381226703609
 21
4.6305073493337296
 31
0.0
  0
LINE
  5
197
100
AcDbEntity
100
AcDbLine
  8
registers
 62
256
370
-1
  6
ByLayer
 10
33.9238381226703609
 20
4.6305073493337296
 30
0.0
 11
33.9238381226703609
 21
3.7971740160003971
 31
0.0
  0
LINE
  5
198
100
AcDbEntity
100
AcDbLine
  8
registers
 62
256
370
-1
  6
ByLayer
 10
37.1982829226707281
 20
3.8847260160004073
 30
0.0
 11
37.5316162560040638
 21
3.8847260160004073
 31
0.0
  0
LINE
  5
199
100
AcDbEntity
100
AcDbLine
  8
registers
 62
256
370
-1
  6
ByLayer
 10
37.5316162560040638
 20
3.8847260160004073
 30
0.0
 11
37.5316162560040638
 21
4.7180593493337399
 31
0.0
  0
LINE
  5
19A
100
AcDbEntity
100
AcDbLine
  8
registers
 62
256
370
-1
  6
ByLayer
 10
37.5316162560040638
 20
4.7180593493337399
 30
0.0
 11
37.1982829226707281
 21
4.7180593493337399
 31
0.0
  0
LINE
  5
19B
100
AcDbEntity
100
AcDbLine
  8
registers
 62
256
370
-1
  6
ByLayer
 10
37.1982829226707281
 20
4.7180593493337399
 30
0.0
 11
37.1982829226707281
 21
3.8847260160004073
 31
0.0
  0
LINE
  5
19C
100
AcDbEntity
100
AcDbLine
  8
registers
 62
256
370
-1
  6
ByLayer
 10
62.8482829226736115
 20
5.3809760160005755
 30
0.0
 11
63.1816162560069472
 21
5.3809760160005755
 31
0.0
  0
LINE
  5
19D
100
AcDbEntity
100
AcDbLine
  8
registers
 62
256
370
-1
  6
ByLayer
 10
63.1816162560069472
 20
5.3809760160005755
 30
0.0
 11
63.1816162560069472
 21
6.2143093493339085
 31
0.0
  0
LINE
  5
19E
100
AcDbEntity
100
AcDbLine
  8
registers
 62
256
370
-1
  6
ByLayer
 10
63.1816162560069472
 20
6.2143093493339085
 30
0.0
 11
62.8482829226736115
 21
6.2143093493339085
 31
0.0
  0
LINE
  5
19F
100
AcDbEntity
100
AcDbLine
  8
registers
 62
256
370
-1
  6
ByLayer
 10
62.8482829226736115
 20
6.2143093493339085
 30
0.0
 11
62.8482829226736115
 21
5.3809760160005755
 31
0.0
  0
LINE
  5
1A0
100
AcDbEntity
100
AcDbLine
  8
registers
 62
256
370
-1
  6
ByLayer
 10
8.2596994560008703
 20
-11.6310133173346752
 30
0.0
 11
8.2596994560008703
 21
-11.2976799840013431
 31
0.0
  0
LINE
  5
1A1
100
AcDbEntity
100
AcDbLine
  8
registers
 62
256
370
-1
  6
ByLayer
 10
8.2596994560008703
 20
-11.2976799840013431
 30
0.0
 11
7.4263661226675381
 21
-11.2976799840013431
 31
0.0
  0
LINE
  5
1A2
100
AcDbEntity
100
AcDbLine
  8
registers
 62
256
370
-1
  6
ByLayer
 10
7.4263661226675381
 20
-11.2976799840013431
 30
0.0
 11
7.4263661226675381
 21
-11.6310133173346752
 31
0.0
  0
LINE
  5
1A3
100
AcDbEntity
100
AcDbLine
  8
registers
 62
256
370
-1
  6
ByLayer
 10
7.4263661226675381
 20
-11.6310133173346752
 30
0.0
 11
8.2596994560008703
 21
-11.6310133173346752
 31
0.0
  0
LINE
  5
1A4
100
AcDbEntity
100
AcDbLine
  8
registers
 62
256
370
-1
  6
ByLayer
 10
18.6857333333354596
 20
-11.4825333333346613
 30
0.0
 11
18.6857333333354596
 21
-11.1492000000013292
 31
0.0
  0
LINE
  5
1A5
100
AcDbEntity
100
AcDbLine
  8
registers
 62
256
370
-1
  6
ByLayer
 10
18.6857333333354596
 20
-11.1492000000013292
 30
0.0
 11
17.8524000000021275
 21
-11.1492000000013292
 31
0.0
  0
LINE
  5
1A6
100
AcDbEntity
100
AcDbLine
  8
registers
 62
256
370
-1
  6
ByLayer
 10
17.8524000000021275
 20
-11.1492000000013292
 30
0.0
 11
17.8524000000021275
 21
-11.4825333333346613
 31
0.0
  0
LINE
  5
1A7
100
AcDbEntity
100
AcDbLine
  8
registers
 62
256
370
-1
  6
ByLayer
 10
17.8524000000021275
 20
-11.4825333333346613
 30
0.0
 11
18.6857333333354596
 21
-11.4825333333346613
 31
0.0
  0
LINE
  5
1A8
100
AcDbEntity
100
AcDbLine
  8
registers
 62
256
370
-1
  6
ByLayer
 10
28.1591333333365945
 20
-11.5851333333346727
 30
0.0
 11
28.1591333333365945
 21
-11.2518000000013405
 31
0.0
  0
LINE
  5
1A9
100
AcDbEntity
100
AcDbLine
  8
registers
 62
256
370
-1
  6
ByLayer
 10
28.1591333333365945
 20
-11.2518000000013405
 30
0.0
 11
27.3258000000032624
 21
-11.2518000000013405
 31
0.0
  0
LINE
  5
1AA
100
AcDbEntity
100
AcDbLine
  8
registers
 62
256
370
-1
  6
ByLayer
 10
27.3258000000032624
 20
-11.2518000000013405
 30
0.0
 11
27.3258000000032624
 21
-11.5851333333346727
 31
0.0
  0
LINE
  5
1AB
100
AcDbEntity
100
AcDbLine
  8
registers
 62
256
370
-1
  6
ByLayer
 10
27.3258000000032624
 20
-11.5851333333346727
 30
0.0
 11
28.1591333333365945
 21
-11.5851333333346727
 31
0.0
  0
LINE
  5
1AC
100
AcDbEntity
100
AcDbLine
  8
registers
 62
256
370
-1
  6
ByLayer
 10
56.8871333333400884
 20
0.5285066666667912
 30
0.0
 11
56.8871333333400884
 21
0.8618400000001234
 31
0.0
  0
LINE
  5
1AD
100
AcDbEntity
100
AcDbLine
  8
registers
 62
256
370
-1
  6
ByLayer
 10
56.8871333333400884
 20
0.8618400000001234
 30
0.0
 11
56.0538000000067598
 21
0.8618400000001234
 31
0.0
  0
LINE
  5
1AE
100
AcDbEntity
100
AcDbLine
  8
registers
 62
256
370
-1
  6
ByLayer
 10
56.0538000000067598
 20
0.8618400000001234
 30
0.0
 11
56.0538000000067598
 21
0.5285066666667912
 31
0.0
  0
LINE
  5
1AF
100
AcDbEntity
100
AcDbLine
  8
registers
 62
256
370
-1
  6
ByLayer
 10
56.0538000000067598
 20
0.5285066666667912
 30
0.0
 11
56.8871333333400884
 21
0.5285066666667912
 31
0.0
  0
LINE
  5
1B0
100
AcDbEntity
100
AcDbLine
  8
registers
 62
256
370
-1
  6
ByLayer
 10
57.1008833333401142
 20
10.6816316666680358
 30
0.0
 11
57.1008833333401142
 21
11.0149650000013679
 31
0.0
  0
LINE
  5
1B1
100
AcDbEntity
100
AcDbLine
  8
registers
 62
256
370
-1
  6
ByLayer
 10
57.1008833333401142
 20
11.0149650000013679
 30
0.0
 11
56.2675500000067856
 21
11.0149650000013679
 31
0.0
  0
LINE
  5
1B2
100
AcDbEntity
100
AcDbLine
  8
registers
 62
256
370
-1
  6
ByLayer
 10
56.2675500000067856
 20
11.0149650000013679
 30
0.0
 11
56.2675500000067856
 21
10.6816316666680358
 31
0.0
  0
LINE
  5
1B3
100
AcDbEntity
100
AcDbLine
  8
registers
 62
256
370
-1
  6
ByLayer
 10
56.2675500000067856
 20
10.6816316666680358
 30
0.0
 11
57.1008833333401142
 21
10.6816316666680358
 31
0.0
  0
LINE
  5
1B4
100
AcDbEntity
100
AcDbLine
  8
registers
 62
256
370
-1
  6
ByLayer
 10
35.512133333337438
 20
12.0175691666682152
 30
0.0
 11
35.512133333337438
 21
12.3509025000015473
 31
0.0
  0
LINE
  5
1B5
100
AcDbEntity
100
AcDbLine
  8
registers
 62
256
370
-1
  6
ByLayer
 10
35.512133333337438
 20
12.3509025000015473
 30
0.0
 11
34.6788000000041094
 21
12.3509025000015473
 31
0.0
  0
LINE
  5
1B6
100
AcDbEntity
100
AcDbLine
  8
registers
 62
256
370
-1
  6
ByLayer
 10
34.6788000000041094
 20
12.3509025000015473
 30
0.0
 11
34.6788000000041094
 21
12.0175691666682152
 31
0.0
  0
LINE
  5
1B7
100
AcDbEntity
100
AcDbLine
  8
registers
 62
256
370
-1
  6
ByLayer
 10
34.6788000000041094
 20
12.0175691666682152
 30
0.0
 11
35.512133333337438
 21
12.0175691666682152
 31
0.0
  0
LINE
  5
1B8
100
AcDbEntity
100
AcDbLine
  8
registers
 62
256
370
-1
  6
ByLayer
 10
33.9238381226703609
 20
4.6305073493337296
 30
0.0
 11
34.2571714560036966
 21
3.7971740160003971
 31
0.0
  0
LINE
  5
1B9
100
AcDbEntity
100
AcDbLine
  8
registers
 62
256
370
-1
  6
ByLayer
 10
34.2571714560036966
 20
4.6305073493337296
 30
0.0
 11
33.9238381226703609
 21
3.7971740160003971
 31
0.0
  0
LINE
  5
1BA
100
AcDbEntity
100
AcDbLine
  8
registers
 62
256
370
-1
  6
ByLayer
 10
28.6433581226697811
 20
4.6852273493337355
 30
0.0
 11
28.9766914560031132
 21
3.8518940160004029
 31
0.0
  0
LINE
  5
1BB
100
AcDbEntity
100
AcDbLine
  8
registers
 62
256
370
-1
  6
ByLayer
 10
28.9766914560031132
 20
4.6852273493337355
 30
0.0
 11
28.6433581226697811
 21
3.8518940160004029
 31
0.0
  0
LINE
  5
1BC
100
AcDbEntity
100
AcDbLine
  8
registers
 62
256
370
-1
  6
ByLayer
 10
37.1982829226707281
 20
4.7180593493337399
 30
0.0
 11
37.5316162560040638
 21
3.8847260160004073
 31
0.0
  0
LINE
  5
1BD
100
AcDbEntity
100
AcDbLine
  8
registers
 62
256
370
-1
  6
ByLayer
 10
37.5316162560040638
 20
4.7180593493337399
 30
0.0
 11
37.1982829226707281
 21
3.8847260160004073
 31
0.0
  0
LINE
  5
1BE
100
AcDbEntity
100
AcDbLine
  8
flow
 62
256
370
-1
  6
ByLayer
 10
7.4102783203135356
 20
4.0704345703130693
 30
0.0
 11
7.4102783203135356
 21
1.774291992187748
 31
0.0
  0
LINE
  5
1BF
100
AcDbEntity
100
AcDbLine
  8
flow
 62
256
370
-1
  6
ByLayer
 10
15.0292968750021014
 20
4.1748046875005835
 30
0.0
 11
14.8205566406270712
 21
1.774291992187748
 31
0.0
  0
LINE
  5
1C0
100
AcDbEntity
100
AcDbLine
  8
flow
 62
256
370
-1
  6
ByLayer
 10
16.3861083984397915
 20
4.1748046875005835
 30
0.0
 11
17.6385498046899656
 21
6.1578369140633606
 31
0.0
  0
LINE
  5
1C1
100
AcDbEntity
100
AcDbLine
  8
flow
 62
256
370
-1
  6
ByLayer
 10
17.6385498046899656
 20
6.1578369140633606
 30
0.0
 11
27.1362304687537943
 21
6.1578369140633606
 31
0.0
  0
LINE
  5
1C2
100
AcDbEntity
100
AcDbLine
  8
flow
 62
256
370
-1
  6
ByLayer
 10
34.7552490234423885
 20
12.3156738281267319
 30
0.0
 11
33.0853271484421541
 21
12.6287841796892764
 31
0.0
  0
LINE
  5
1C3
100
AcDbEntity
100
AcDbLine
  8
flow
 62
256
370
-1
  6
ByLayer
 10
33.0853271484421541
 20
12.6287841796892764
 30
0.0
 11
33.1896972656296683
 21
1.7742919921877496
 31
0.0
  0
LINE
  5
1C4
100
AcDbEntity
100
AcDbLine
  8
flow
 62
256
370
-1
  6
ByLayer
 10
33.1896972656296683
 20
1.7742919921877496
 30
0.0
 11
27.9711914062539364
 21
1.6699218750002349
 31
0.0
  0
LINE
  5
1C5
100
AcDbEntity
100
AcDbLine
  8
flow
 62
256
370
-1
  6
ByLayer
 10
56.5686035156329581
 20
0.6262207031250882
 30
0.0
 11
38.7213134765679499
 21
2.2961425781253229
 31
0.0
  0
LINE
  5
1C6
100
AcDbEntity
100
AcDbLine
  8
flow
 62
256
370
-1
  6
ByLayer
 10
27.7624511718789044
 20
-11.0632324218765561
 30
0.0
 11
24.7357177734409817
 21
-2.1917724609378082
 31
0.0
  0
LINE
  5
1C7
100
AcDbEntity
100
AcDbLine
  8
flow
 62
256
370
-1
  6
ByLayer
 10
27.1362304687537943
 20
6.1578369140633606
 30
0.0
 11
27.9711914062539364
 21
1.6699218750002349
 31
0.0
  0
LINE
  5
1C8
100
AcDbEntity
100
AcDbLine
  8
flow
 62
256
370
-1
  6
ByLayer
 10
56.4642333984454439
 20
10.2282714843764388
 30
0.0
 11
38.7213134765679499
 21
2.2961425781253229
 31
0.0
  0
LINE
  5
1C9
100
AcDbEntity
100
AcDbLine
  8
flow
 62
256
370
-1
  6
ByLayer
 10
62.7264404296963249
 20
5.531616210938278
 30
0.0
 11
38.7213134765679499
 21
2.2961425781253229
 31
0.0
  0
POINT
  5
1CA
100
AcDbEntity
100
AcDbPoint
  8
flow
 62
256
370
-1
  6
ByLayer
 10
34.2083299999999966
 20
11.4083285648494179
 30
0.0
  0
POINT
  5
1CB
100
AcDbEntity
100
AcDbPoint
  8
flow
 62
256
370
-1
  6
ByLayer
 10
33.0853271484421541
 20
12.6287841796892764
 30
0.0
  0
POINT
  5
1CC
100
AcDbEntity
100
AcDbPoint
  8
flow
 62
256
370
-1
  6
ByLayer
 10
33.0853271484421541
 20
12.6287841796892764
 30
0.0
  0
LINE
  5
1CD
100
AcDbEntity
100
AcDbLine
  8
flow
 62
256
370
-1
  6
ByLayer
 10
22.6514534400036673
 20
1.7370316800002812
 30
0.0
 11
22.6483154296906655
 21
3.548583984375496
 31
0.0
  0
LINE
  5
1CE
100
AcDbEntity
100
AcDbLine
  8
flow
 62
256
370
-1
  6
ByLayer
 10
27.9711914062539364
 20
1.6699218750002349
 30
0.0
 11
22.6514534400036673
 21
1.7370316800002812
 31
0.0
  0
LINE
  5
1CF
100
AcDbEntity
100
AcDbLine
  8
flow
 62
256
370
-1
  6
ByLayer
 10
38.7213134765679499
 20
2.2961425781253229
 30
0.0
 11
33.1896972656296683
 21
1.7742919921877496
 31
0.0
  0
LINE
  5
1D0
100
AcDbEntity
100
AcDbLine
  8
flow
 62
256
370
-1
  6
ByLayer
 10
8.0364990234386315
 20
-10.6457519531264975
 30
0.0
 11
14.7087360000024443
 21
-0.3677184000000611
 31
0.0
  0
LINE
  5
1D1
100
AcDbEntity
100
AcDbLine
  8
flow
 62
256
370
-1
  6
ByLayer
 10
18.0560302734400402
 20
-10.8544921875015277
 30
0.0
 11
14.7087360000024443
 21
-0.3677184000000611
 31
0.0
  0
LINE
  5
1D2
100
AcDbEntity
100
AcDbLine
  8
flow
 62
256
370
-1
  6
ByLayer
 10
14.7087360000024443
 20
-0.3677184000000611
 30
0.0
 11
14.7161865234395712
 21
1.7742919921877496
 31
0.0
  0
LINE
  5
1D3
100
AcDbEntity
100
AcDbLine
  8
flow
 62
256
370
-1
  6
ByLayer
 10
24.7357177734409817
 20
-2.1917724609378082
 30
0.0
 11
14.7087360000024443
 21
-0.3677184000000611
 31
0.0
  0
LINE
  5
1D4
100
AcDbEntity
100
AcDbLine
  8
flow
 62
256
370
-1
  6
ByLayer
 10
7.4102783203135356
 20
1.774291992187748
 30
0.0
 11
22.6514534400036673
 21
1.7370316800002812
 31
0.0
  0
ENDSEC
  0
SECTION
  2
OBJECTS
  0
DICTIONARY
  5
C
100
AcDbDictionary
280
0
281
1
  3
ACAD_GROUP
350
D
  3
ACAD_LAYOUT
350
1A
  3
ACAD_MLINESTYLE
350
17
  3
ACAD_PLOTSETTINGS
350
19
  3
ACAD_PLOTSTYLENAME
350
E
  3
AcDbVariableDictionary
350
1D5
  0
DICTIONARY
  5
D
100
AcDbDictionary
280
0
281
1
  0
ACDBDICTIONARYWDFLT
  5
E
100
AcDbDictionary
281
1
  3
Normal
350
F
100
AcDbDictionaryWithDefault
340
F
  0
ACDBPLACEHOLDER
  5
F
  0
DICTIONARY
  5
17
100
AcDbDictionary
280
0
281
1
  3
Standard
350
18
  0
MLINESTYLE
  5
18
100
AcDbMlineStyle
  2
STANDARD
 70
0
  3

 62
256
 51
90.0
 52
90.0
 71
2
 49
0.5
 62
256
  6
BYLAYER
 49
-0.5
 62
256
  6
BYLAYER
  0
DICTIONARY
  5
19
100
AcDbDictionary
280
0
281
1
  0
DICTIONARY
  5
1A
100
AcDbDictionary
281
1
  3
Layout1
350
1E
  3
Layout2
350
26
  3
Model
350
22
  0
LAYOUT
  5
1E
100
AcDbPlotSettings
  1

  2
C:\Program Files\AutoCAD 2002\plotters\DWF ePlot (optimized for plotting).pc3
  4

  6

 40
0.0
 41
0.0
 42
0.0
 43
0.0
 44
0.0
 45
0.0
 46
0.0
 47
0.0
 48
0.0
 49
0.0
140
0.0
141
0.0
142
1.0
143
1.0
 70
688
 72
0
 73
0
 74
5
  7

 75
16
147
1.0
148
0.0
149
0.0
100
AcDbLayout
  1
Layout1
 70
1
 71
1
 10
0.0
 20
0.0
 11
420.0
 21
297.0
 12
0.0
 22
0.0
 32
0.0
 14
100000000000000000000.0
 24
100000000000000000000.0
 34
100000000000000000000.0
 15
-100000000000000000000.0
 25
-100000000000000000000.0
 35
-100000000000000000000.0
146
0.0
 13
0.0
 23
0.0
 33
0.0
 16
1.0
 26
0.0
 36
0.0
 17
0.0
 27
1.0
 37
0.0
 76
0
330
1B
  0
LAYOUT
  5
22
100
AcDbPlotSettings
  1

  2
C:\Program Files\AutoCAD 2002\plotters\DWF ePlot (optimized for plotting).pc3
  4

  6

 40
0.0
 41
0.0
 42
0.0
 43
0.0
 44
0.0
 45
0.0
 46
0.0
 47
0.0
 48
0.0
 49
0.0
140
0.0
141
0.0
142
1.0
143
1.0
 70
1712
 72
0
 73
0
 74
0
  7

 75
0
147
1.0
148
0.0
149
0.0
100
AcDbLayout
  1
Model
 70
1
 71
0
 10
0.0
 20
0.0
 11
12.0
 21
9.0
 12
0.0
 22
0.0
 32
0.0
 14
0.0
 24
0.0
 34
0.0
 15
0.0
 25
0.0
 35
0.0
146
0.0
 13
0.0
 23
0.0
 33
0.0
 16
1.0
 26
0.0
 36
0.0
 17
0.0
 27
1.0
 37
0.0
 76
0
330
1F
  0
LAYOUT
  5
26
100
AcDbPlotSettings
  1

  2
C:\Program Files\AutoCAD 2002\plotters\DWF ePlot (optimized for plotting).pc3
  4

  6

 40
0.0
 41
0.0
 42
0.0
 43
0.0
 44
0.0
 45
0.0
 46
0.0
 47
0.0
 48
0.0
 49
0.0
140
0.0
141
0.0
142
1.0
143
1.0
 70
688
 72
0
 73
0
 74
5
  7

 75
16
147
1.0
148
0.0
149
0.0
100
AcDbLayout
  1
Layout2
 70
1
 71
2
 10
0.0
 20
0.0
 11
12.0
 21
9.0
 12
0.0
 22
0.0
 32
0.0
 14
0.0
 24
0.0
 34
0.0
 15
0.0
 25
0.0
 35
0.0
146
0.0
 13
0.0
 23
0.0
 33
0.0
 16
1.0
 26
0.0
 36
0.0
 17
0.0
 27
1.0
 37
0.0
 76
0
330
23
  0
DICTIONARY
  5
1D5
100
AcDbDictionary
281
1
  3
DIMASSOC
350
1D7
  3
HIDETEXT
350
1D6
  0
DICTIONARYVAR
  5
1D6
100
DictionaryVariables
280
0
  1
2
  0
DICTIONARYVAR
  5
1D7
100
DictionaryVariables
280
0
  1
1
  0
ENDSEC
  0
EOF
