999
dxfrw 0.6.3
  0
SECTION
  2
HEADER
  9
$ACADVER
  1
AC1021
  9
$DWGCODEPAGE
  3
ANSI_1252
  9
$INSBASE
 10
0
 20
0
 30
0
  9
$EXTMIN
 10
-71.72935986148204
 20
-80
 30
0
  9
$EXTMAX
 10
139.2138771757038
 20
80
 30
0
  9
$LIMMIN
 10
0
 20
0
  9
$LIMMAX
 10
420
 20
297
  9
$ORTHOMODE
 70
    0
  9
$REGENMODE
 70
    1
  9
$FILLMODE
 70
    1
  9
$QTEXTMODE
 70
    0
  9
$MIRRTEXT
 70
    0
  9
$LTSCALE
 40
1
  9
$ATTMODE
 70
    0
  9
$TEXTSIZE
 40
2.5
  9
$TRACEWID
 40
15.68
  9
$TEXTSTYLE
  7
STANDARD
  9
$CLAYER
  8
299
  9
$CELTYPE
  6
BYLAYER
  9
$CECOLOR
 62
  256
  9
$CELTSCALE
 40
1
  9
$DISPSILH
 70
    0
  9
$DIMSCALE
 40
2.5
  9
$DIMASZ
 40
2.5
  9
$DIMEXO
 40
0.625
  9
$DIMDLI
 40
3.75
  9
$DIMRND
 40
0
  9
$DIMDLE
 40
0
  9
$DIMEXE
 40
1.25
  9
$DIMTP
 40
0
  9
$DIMTM
 40
0
  9
$DIMTXT
 40
2.5
  9
$DIMCEN
 40
2.5
  9
$DIMTSZ
 40
0
  9
$DIMTOL
 70
    0
  9
$DIMLIM
 70
    0
  9
$DIMTIH
 70
    0
  9
$DIMTOH
 70
    0
  9
$DIMSE1
 70
    0
  9
$DIMSE2
 70
    0
  9
$DIMTAD
 70
    1
  9
$DIMZIN
 70
    8
  9
$DIMBLK
  1

  9
$DIMASO
 70
    1
  9
$DIMSHO
 70
    1
  9
$DIMPOST
  1

  9
$DIMAPOST
  1

  9
$DIMALT
 70
    0
  9
$DIMALTD
 70
    3
  9
$DIMALTF
 40
0.03937
  9
$DIMLFAC
 40
1
  9
$DIMTOFL
 70
    1
  9
$DIMTVP
 40
0
  9
$DIMTIX
 70
    0
  9
$DIMSOXD
 70
    0
  9
$DIMSAH
 70
    0
  9
$DIMBLK1
  1

  9
$DIMBLK2
  1

  9
$DIMSTYLE
  2
STANDARD
  9
$DIMCLRD
 70
    0
  9
$DIMCLRE
 70
    0
  9
$DIMCLRT
 70
    0
  9
$DIMTFAC
 40
1
  9
$DIMGAP
 40
0.625
  9
$DIMJUST
 70
    0
  9
$DIMSD1
 70
    0
  9
$DIMSD2
 70
    0
  9
$DIMTOLJ
 70
    0
  9
$DIMTZIN
 70
    8
  9
$DIMALTZ
 70
    0
  9
$DIMALTTZ
 70
    0
  9
$DIMUPT
 70
    0
  9
$DIMDEC
 70
    2
  9
$DIMTDEC
 70
    2
  9
$DIMALTU
 70
    2
  9
$DIMALTTD
 70
    3
  9
$DIMTXSTY
  7
STANDARD
  9
$DIMAUNIT
 70
    0
  9
$DIMADEC
 70
    0
  9
$DIMALTRND
 40
0
  9
$DIMAZIN
 70
    0
  9
$DIMDSEP
 70
   44
  9
$DIMATFIT
 70
    3
  9
$DIMFRAC
 70
    0
  9
$DIMLDRBLK
  1
STANDARD
  9
$DIMLUNIT
 70
    2
  9
$DIMLWD
 70
   -2
  9
$DIMLWE
 70
   -2
  9
$DIMTMOVE
 70
    0
  9
$DIMFXL
 40
1
  9
$DIMFXLON
 70
    0
  9
$DIMJOGANG
 40
0.7854
  9
$DIMTFILL
 70
    0
  9
$DIMTFILLCLR
 70
    0
  9
$DIMARCSYM
 70
    0
  9
$DIMLTYPE
  6

  9
$DIMLTEX1
  6

  9
$DIMLTEX2
  6

  9
$LUNITS
 70
    2
  9
$LUPREC
 70
    4
  9
$SKETCHINC
 40
1
  9
$FILLETRAD
 40
0
  9
$AUNITS
 70
    0
  9
$AUPREC
 70
    2
  9
$MENU
  1
.
  9
$ELEVATION
 40
0
  9
$PELEVATION
 40
0
  9
$THICKNESS
 40
0
  9
$LIMCHECK
 70
    0
  9
$CHAMFERA
 40
0
  9
$CHAMFERB
 40
0
  9
$CHAMFERC
 40
0
  9
$CHAMFERD
 40
0
  9
$SKPOLY
 70
    0
  9
$USRTIMER
 70
    1
  9
$ANGBASE
 50
0
  9
$ANGDIR
 70
    0
  9
$PDMODE
 70
   34
  9
$PDSIZE
 40
0
  9
$PLINEWID
 40
0
  9
$SPLFRAME
 70
    0
  9
$SPLINETYPE
 70
    2
  9
$SPLINESEGS
 70
    8
  9
$HANDSEED
  5
20000
  9
$SURFTAB1
 70
    6
  9
$SURFTAB2
 70
    6
  9
$SURFTYPE
 70
    6
  9
$SURFU
 70
    6
  9
$SURFV
 70
    6
  9
$UCSBASE
  2

  9
$UCSNAME
  2

  9
$UCSORG
 10
0
 20
0
 30
0
  9
$UCSXDIR
 10
1
 20
0
 30
0
  9
$UCSYDIR
 10
0
 20
1
 30
0
  9
$UCSORTHOREF
  2

  9
$UCSORTHOVIEW
 70
    0
  9
$UCSORGTOP
 10
0
 20
0
 30
0
  9
$UCSORGBOTTOM
 10
0
 20
0
 30
0
  9
$UCSORGLEFT
 10
0
 20
0
 30
0
  9
$UCSORGRIGHT
 10
0
 20
0
 30
0
  9
$UCSORGFRONT
 10
0
 20
0
 30
0
  9
$UCSORGBACK
 10
0
 20
0
 30
0
  9
$PUCSBASE
  2

  9
$PUCSNAME
  2

  9
$PUCSORG
 10
0
 20
0
 30
0
  9
$PUCSXDIR
 10
1
 20
0
 30
0
  9
$PUCSYDIR
 10
0
 20
1
 30
0
  9
$PUCSORTHOREF
  2

  9
$PUCSORTHOVIEW
 70
    0
  9
$PUCSORGTOP
 10
0
 20
0
 30
0
  9
$PUCSORGBOTTOM
 10
0
 20
0
 30
0
  9
$PUCSORGLEFT
 10
0
 20
0
 30
0
  9
$PUCSORGRIGHT
 10
0
 20
0
 30
0
  9
$PUCSORGFRONT
 10
0
 20
0
 30
0
  9
$PUCSORGBACK
 10
0
 20
0
 30
0
  9
$USERI1
 70
    0
  9
$USERI2
 70
    0
  9
$USERI3
 70
    0
  9
$USERI4
 70
    0
  9
$USERI5
 70
    0
  9
$USERR1
 40
0
  9
$USERR2
 40
0
  9
$USERR3
 40
0
  9
$USERR4
 40
0
  9
$USERR5
 40
0
  9
$WORLDVIEW
 70
    1
  9
$SHADEDGE
 70
    3
  9
$SHADEDIF
 70
   70
  9
$TILEMODE
 70
    1
  9
$MAXACTVP
 70
   64
  9
$PINSBASE
 10
0
 20
0
 30
0
  9
$PLIMCHECK
 70
    0
  9
$PEXTMIN
 10
0
 20
0
 30
0
  9
$PEXTMAX
 10
0
 20
0
 30
0
  9
$GRIDMODE
 70
    1
  9
$SNAPSTYLE
 70
    0
  9
$PLIMMIN
 10
0
 20
0
  9
$PLIMMAX
 10
297
 20
210
  9
$UNITMODE
 70
    0
  9
$VISRETAIN
 70
    1
  9
$PLINEGEN
 70
    0
  9
$PSLTSCALE
 70
    1
  9
$TREEDEPTH
 70
 3020
  9
$CMLSTYLE
  2
Standard
  9
$CMLJUST
 70
    0
  9
$CMLSCALE
 40
20
  9
$PROXYGRAPHICS
 70
    1
  9
$MEASUREMENT
 70
    1
  9
$CELWEIGHT
370
   -1
  9
$ENDCAPS
280
    0
  9
$JOINSTYLE
280
    0
  9
$LWDISPLAY
290
    0
  9
$INSUNITS
 70
    4
  9
$HYPERLINKBASE
  1

  9
$STYLESHEET
  1

  9
$XEDIT
290
    1
  9
$CEPSNTYPE
380
    0
  9
$PSTYLEMODE
290
    1
  9
$EXTNAMES
290
    1
  9
$PSVPSCALE
 40
0
  9
$OLESTARTUP
290
    0
  9
$SORTENTS
280
  127
  9
$INDEXCTL
280
    0
  9
$HIDETEXT
280
    1
  9
$XCLIPFRAME
290
    0
  9
$HALOGAP
280
    0
  9
$OBSCOLOR
 70
  257
  9
$OBSLTYPE
280
    0
  9
$INTERSECTIONDISPLAY
280
    0
  9
$INTERSECTIONCOLOR
 70
  257
  9
$DIMASSOC
280
    1
  9
$PROJECTNAME
  1

  9
$CAMERADISPLAY
290
    0
  9
$LENSLENGTH
 40
50
  9
$CAMERAHEIGHT
 40
0
  9
$STEPSPERSEC
 40
2
  9
$STEPSIZE
 40
50
  9
$3DDWFPREC
 40
2
  9
$PSOLWIDTH
 40
5
  9
$PSOLHEIGHT
 40
80
  9
$LOFTANG1
 40
1.570796326794897
  9
$LOFTANG2
 40
1.570796326794897
  9
$LOFTMAG1
 40
0
  9
$LOFTMAG2
 40
0
  9
$LOFTPARAM
 70
    7
  9
$LOFTNORMALS
280
    1
  9
$LATITUDE
 40
1
  9
$LONGITUDE
 40
1
  9
$NORTHDIRECTION
 40
0
  9
$TIMEZONE
 70
-8000
  9
$LIGHTGLYPHDISPLAY
280
    1
  9
$TILEMODELIGHTSYNCH
280
    1
  9
$SOLIDHIST
280
    1
  9
$SHOWHIST
280
    1
  9
$DWFFRAME
280
    2
  9
$DGNFRAME
280
    0
  9
$REALWORLDSCALE
290
    1
  9
$INTERFERECOLOR
 62
    1
  9
$CSHADOW
280
    0
  9
$SHADOWPLANELOCATION
 40
0
  0
ENDSEC
  0
SECTION
  2
CLASSES
  0
ENDSEC
  0
SECTION
  2
TABLES
  0
TABLE
  2
VPORT
  5
8
330
0
100
AcDbSymbolTable
 70
    1
  0
VPORT
  5
31
330
2
100
AcDbSymbolTableRecord
100
AcDbViewportTableRecord
  2
*ACTIVE
 70
    0
 10
0
 20
0
 11
1
 21
1
 12
27.6538616732369
 22
13.096868888445
 13
0
 23
0
 14
10
 24
10
 15
10
 25
10
 16
0
 26
0
 36
1
 17
0
 27
0
 37
0
 40
32.16697189830916
 41
1.200825309491059
 42
50
 43
0
 44
0
 50
0
 51
0
 71
    0
 72
  100
 73
    1
 74
    3
 75
    0
 76
    1
 77
    0
 78
    0
281
    0
 65
    1
110
0
120
0
130
0
111
1
121
0
131
0
112
0
122
1
132
0
 79
    0
146
0
348
10020
 60
    7
 61
    5
292
1
282
    1
141
0
142
0
 63
  250
421
3358443
  0
ENDTAB
  0
TABLE
  2
LTYPE
  5
5
330
0
100
AcDbSymbolTable
 70
    4
  0
LTYPE
  5
14
330
5
100
AcDbSymbolTableRecord
100
AcDbLinetypeTableRecord
  2
ByBlock
 70
    0
  3

 72
   65
 73
    0
 40
0
  0
LTYPE
  5
15
330
5
100
AcDbSymbolTableRecord
100
AcDbLinetypeTableRecord
  2
ByLayer
 70
    0
  3

 72
   65
 73
    0
 40
0
  0
LTYPE
  5
16
330
5
100
AcDbSymbolTableRecord
100
AcDbLinetypeTableRecord
  2
Continuous
 70
    0
  3
Solid line
 72
   65
 73
    0
 40
0
  0
LTYPE
  5
32
330
5
100
AcDbSymbolTableRecord
100
AcDbLinetypeTableRecord
  2
DOT
 70
    0
  3
Dot . . . . . . . . . . . . . . . . . . . . . .
 72
   65
 73
    2
 40
6.35
 49
0
 74
    0
 49
-6.35
 74
    0
  0
LTYPE
  5
33
330
5
100
AcDbSymbolTableRecord
100
AcDbLinetypeTableRecord
  2
DOTTINY
 70
    0
  3
Dot (.15x) .....................................
 72
   65
 73
    2
 40
0.9525
 49
0
 74
    0
 49
-0.9525
 74
    0
  0
LTYPE
  5
34
330
5
100
AcDbSymbolTableRecord
100
AcDbLinetypeTableRecord
  2
DOT2
 70
    0
  3
Dot (.5x) .....................................
 72
   65
 73
    2
 40
3.175
 49
0
 74
    0
 49
-3.175
 74
    0
  0
LTYPE
  5
35
330
5
100
AcDbSymbolTableRecord
100
AcDbLinetypeTableRecord
  2
DOTX2
 70
    0
  3
Dot (2x) .  .  .  .  .  .  .  .  .  .  .  .  .
 72
   65
 73
    2
 40
12.7
 49
0
 74
    0
 49
-12.7
 74
    0
  0
LTYPE
  5
36
330
5
100
AcDbSymbolTableRecord
100
AcDbLinetypeTableRecord
  2
DASHED
 70
    0
  3
Dashed _ _ _ _ _ _ _ _ _ _ _ _ _ _ _ _ _
 72
   65
 73
    2
 40
19.05
 49
12.7
 74
    0
 49
-6.35
 74
    0
  0
LTYPE
  5
37
330
5
100
AcDbSymbolTableRecord
100
AcDbLinetypeTableRecord
  2
DASHEDTINY
 70
    0
  3
Dashed (.15x) _ _ _ _ _ _ _ _ _ _ _ _ _ _ _ _ _
 72
   65
 73
    2
 40
2.8575
 49
1.905
 74
    0
 49
-0.9525
 74
    0
  0
LTYPE
  5
38
330
5
100
AcDbSymbolTableRecord
100
AcDbLinetypeTableRecord
  2
DASHED2
 70
    0
  3
Dashed (.5x) _ _ _ _ _ _ _ _ _ _ _ _ _ _ _ _ _
 72
   65
 73
    2
 40
9.524999999999999
 49
6.35
 74
    0
 49
-3.175
 74
    0
  0
LTYPE
  5
39
330
5
100
AcDbSymbolTableRecord
100
AcDbLinetypeTableRecord
  2
DASHEDX2
 70
    0
  3
Dashed (2x) ____  ____  ____  ____  ____  ___
 72
   65
 73
    2
 40
38.09999999999999
 49
25.4
 74
    0
 49
-12.7
 74
    0
  0
LTYPE
  5
3A
330
5
100
AcDbSymbolTableRecord
100
AcDbLinetypeTableRecord
  2
DASHDOT
 70
    0
  3
Dash dot __ . __ . __ . __ . __ . __ . __ . __
 72
   65
 73
    4
 40
25.4
 49
12.7
 74
    0
 49
-6.35
 74
    0
 49
0
 74
    0
 49
-6.35
 74
    0
  0
LTYPE
  5
3B
330
5
100
AcDbSymbolTableRecord
100
AcDbLinetypeTableRecord
  2
DASHDOTTINY
 70
    0
  3
Dash dot (.15x) _._._._._._._._._._._._._._._.
 72
   65
 73
    4
 40
3.81
 49
1.905
 74
    0
 49
-0.9525
 74
    0
 49
0
 74
    0
 49
-0.9525
 74
    0
  0
LTYPE
  5
3C
330
5
100
AcDbSymbolTableRecord
100
AcDbLinetypeTableRecord
  2
DASHDOT2
 70
    0
  3
Dash dot (.5x) _._._._._._._._._._._._._._._.
 72
   65
 73
    4
 40
12.7
 49
6.35
 74
    0
 49
-3.175
 74
    0
 49
0
 74
    0
 49
-3.175
 74
    0
  0
LTYPE
  5
3D
330
5
100
AcDbSymbolTableRecord
100
AcDbLinetypeTableRecord
  2
DASHDOTX2
 70
    0
  3
Dash dot (2x) ____  .  ____  .  ____  .  ___
 72
   65
 73
    4
 40
50.8
 49
25.4
 74
    0
 49
-12.7
 74
    0
 49
0
 74
    0
 49
-12.7
 74
    0
  0
LTYPE
  5
3E
330
5
100
AcDbSymbolTableRecord
100
AcDbLinetypeTableRecord
  2
DIVIDE
 70
    0
  3
Divide ____ . . ____ . . ____ . . ____ . . ____
 72
   65
 73
    6
 40
31.75
 49
12.7
 74
    0
 49
-6.35
 74
    0
 49
0
 74
    0
 49
-6.35
 74
    0
 49
0
 74
    0
 49
-6.35
 74
    0
  0
LTYPE
  5
3F
330
5
100
AcDbSymbolTableRecord
100
AcDbLinetypeTableRecord
  2
DIVIDETINY
 70
    0
  3
Divide (.15x) __..__..__..__..__..__..__..__.._
 72
   65
 73
    6
 40
4.7625
 49
1.905
 74
    0
 49
-0.9525
 74
    0
 49
0
 74
    0
 49
-0.9525
 74
    0
 49
0
 74
    0
 49
-0.9525
 74
    0
  0
LTYPE
  5
40
330
5
100
AcDbSymbolTableRecord
100
AcDbLinetypeTableRecord
  2
DIVIDE2
 70
    0
  3
Divide (.5x) __..__..__..__..__..__..__..__.._
 72
   65
 73
    6
 40
15.875
 49
6.35
 74
    0
 49
-3.175
 74
    0
 49
0
 74
    0
 49
-3.175
 74
    0
 49
0
 74
    0
 49
-3.175
 74
    0
  0
LTYPE
  5
41
330
5
100
AcDbSymbolTableRecord
100
AcDbLinetypeTableRecord
  2
DIVIDEX2
 70
    0
  3
Divide (2x) ________  .  .  ________  .  .  _
 72
   65
 73
    6
 40
63.5
 49
25.4
 74
    0
 49
-12.7
 74
    0
 49
0
 74
    0
 49
-12.7
 74
    0
 49
0
 74
    0
 49
-12.7
 74
    0
  0
LTYPE
  5
42
330
5
100
AcDbSymbolTableRecord
100
AcDbLinetypeTableRecord
  2
BORDER
 70
    0
  3
Border __ __ . __ __ . __ __ . __ __ . __ __ .
 72
   65
 73
    6
 40
44.45
 49
12.7
 74
    0
 49
-6.35
 74
    0
 49
12.7
 74
    0
 49
-6.35
 74
    0
 49
0
 74
    0
 49
-6.35
 74
    0
  0
LTYPE
  5
43
330
5
100
AcDbSymbolTableRecord
100
AcDbLinetypeTableRecord
  2
BORDERTINY
 70
    0
  3
Border (.15x) __.__.__.__.__.__.__.__.__.__.__.
 72
   65
 73
    6
 40
6.6675
 49
1.905
 74
    0
 49
-0.9525
 74
    0
 49
1.905
 74
    0
 49
-0.9525
 74
    0
 49
0
 74
    0
 49
-0.9525
 74
    0
  0
LTYPE
  5
44
330
5
100
AcDbSymbolTableRecord
100
AcDbLinetypeTableRecord
  2
BORDER2
 70
    0
  3
Border (.5x) __.__.__.__.__.__.__.__.__.__.__.
 72
   65
 73
    6
 40
22.225
 49
6.35
 74
    0
 49
-3.175
 74
    0
 49
6.35
 74
    0
 49
-3.175
 74
    0
 49
0
 74
    0
 49
-3.175
 74
    0
  0
LTYPE
  5
45
330
5
100
AcDbSymbolTableRecord
100
AcDbLinetypeTableRecord
  2
BORDERX2
 70
    0
  3
Border (2x) ____  ____  .  ____  ____  .  ___
 72
   65
 73
    6
 40
88.89999999999999
 49
25.4
 74
    0
 49
-12.7
 74
    0
 49
25.4
 74
    0
 49
-12.7
 74
    0
 49
0
 74
    0
 49
-12.7
 74
    0
  0
LTYPE
  5
46
330
5
100
AcDbSymbolTableRecord
100
AcDbLinetypeTableRecord
  2
CENTER
 70
    0
  3
Center ____ _ ____ _ ____ _ ____ _ ____ _ ____
 72
   65
 73
    4
 40
50.8
 49
31.75
 74
    0
 49
-6.35
 74
    0
 49
6.35
 74
    0
 49
-6.35
 74
    0
  0
LTYPE
  5
47
330
5
100
AcDbSymbolTableRecord
100
AcDbLinetypeTableRecord
  2
CENTERTINY
 70
    0
  3
Center (.15x) ___ _ ___ _ ___ _ ___ _ ___ _ ___
 72
   65
 73
    4
 40
7.62
 49
4.7625
 74
    0
 49
-0.9525
 74
    0
 49
0.9525
 74
    0
 49
-0.9525
 74
    0
  0
LTYPE
  5
48
330
5
100
AcDbSymbolTableRecord
100
AcDbLinetypeTableRecord
  2
CENTER2
 70
    0
  3
Center (.5x) ___ _ ___ _ ___ _ ___ _ ___ _ ___
 72
   65
 73
    4
 40
28.575
 49
19.05
 74
    0
 49
-3.175
 74
    0
 49
3.175
 74
    0
 49
-3.175
 74
    0
  0
LTYPE
  5
49
330
5
100
AcDbSymbolTableRecord
100
AcDbLinetypeTableRecord
  2
CENTERX2
 70
    0
  3
Center (2x) ________  __  ________  __  _____
 72
   65
 73
    4
 40
101.6
 49
63.5
 74
    0
 49
-12.7
 74
    0
 49
12.7
 74
    0
 49
-12.7
 74
    0
  0
ENDTAB
  0
TABLE
  2
LAYER
  5
2
330
0
100
AcDbSymbolTable
 70
    1
  0
LAYER
  5
10
330
2
100
AcDbSymbolTableRecord
100
AcDbLayerTableRecord
  2
0
 70
    1
 62
    7
  6
CONTINUOUS
370
    0
390
F
  0
LAYER
  5
4A
330
2
100
AcDbSymbolTableRecord
100
AcDbLayerTableRecord
  2
1
 70
    1
 62
    3
  6
CONTINUOUS
370
    0
390
F
  0
LAYER
  5
4B
330
2
100
AcDbSymbolTableRecord
100
AcDbLayerTableRecord
  2
10
 70
    1
 62
    8
  6
CONTINUOUS
370
    0
390
F
  0
LAYER
  5
4C
330
2
100
AcDbSymbolTableRecord
100
AcDbLayerTableRecord
  2
100
 70
    1
 62
    1
  6
CONTINUOUS
370
    0
390
F
  0
LAYER
  5
4D
330
2
100
AcDbSymbolTableRecord
100
AcDbLayerTableRecord
  2
101
 70
    1
 62
    6
  6
CONTINUOUS
370
    0
390
F
  0
LAYER
  5
4E
330
2
100
AcDbSymbolTableRecord
100
AcDbLayerTableRecord
  2
102
 70
    1
 62
  216
420
8388736
  6
CONTINUOUS
370
    0
390
F
  0
LAYER
  5
4F
330
2
100
AcDbSymbolTableRecord
100
AcDbLayerTableRecord
  2
11
 70
    1
 62
    4
  6
CONTINUOUS
370
    0
390
F
  0
LAYER
  5
50
330
2
100
AcDbSymbolTableRecord
100
AcDbLayerTableRecord
  2
2
 70
    1
 62
    5
  6
CONTINUOUS
370
    0
390
F
  0
LAYER
  5
51
330
2
100
AcDbSymbolTableRecord
100
AcDbLayerTableRecord
  2
20
 70
    1
 62
    4
  6
CONTINUOUS
370
    0
390
F
  0
LAYER
  5
52
330
2
100
AcDbSymbolTableRecord
100
AcDbLayerTableRecord
  2
200
 70
    1
 62
   20
420
16733440
  6
CONTINUOUS
370
    0
390
F
  0
LAYER
  5
53
330
2
100
AcDbSymbolTableRecord
100
AcDbLayerTableRecord
  2
201
 70
    1
 62
   40
420
16755200
  6
CONTINUOUS
370
    0
390
F
  0
LAYER
  5
54
330
2
100
AcDbSymbolTableRecord
100
AcDbLayerTableRecord
  2
21
 70
    1
 62
    3
  6
CONTINUOUS
370
    0
390
F
  0
LAYER
  5
55
330
2
100
AcDbSymbolTableRecord
100
AcDbLayerTableRecord
  2
21b
 70
    1
 62
    5
  6
CONTINUOUS
370
    0
390
F
  0
LAYER
  5
56
330
2
100
AcDbSymbolTableRecord
100
AcDbLayerTableRecord
  2
298
 70
    0
 62
    8
  6
CONTINUOUS
370
    0
390
F
  0
LAYER
  5
57
330
2
100
AcDbSymbolTableRecord
100
AcDbLayerTableRecord
  2
299
 70
    1
 62
    4
  6
CONTINUOUS
370
    0
390
F
  0
LAYER
  5
58
330
2
100
AcDbSymbolTableRecord
100
AcDbLayerTableRecord
  2
2xc
 70
    1
 62
    8
  6
CONTINUOUS
370
    0
390
F
  0
LAYER
  5
59
330
2
100
AcDbSymbolTableRecord
100
AcDbLayerTableRecord
  2
ref
 70
    1
 62
    2
  6
CONTINUOUS
370
    0
390
F
  0
ENDTAB
  0
TABLE
  2
STYLE
  5
3
330
0
100
AcDbSymbolTable
 70
    3
  0
STYLE
  5
5A
330
2
100
AcDbSymbolTableRecord
100
AcDbTextStyleTableRecord
  2
Standard
 70
    0
 40
0
 41
1
 50
0
 71
    0
 42
1
  3
txt
  4

  0
ENDTAB
  0
TABLE
  2
VIEW
  5
6
330
0
100
AcDbSymbolTable
 70
    0
  0
ENDTAB
  0
TABLE
  2
UCS
  5
7
330
0
100
AcDbSymbolTable
 70
    0
  0
ENDTAB
  0
TABLE
  2
APPID
  5
9
330
0
100
AcDbSymbolTable
 70
    1
  0
APPID
  5
12
330
9
100
AcDbSymbolTableRecord
100
AcDbRegAppTableRecord
  2
ACAD
 70
    0
  0
APPID
  5
5B
330
9
100
AcDbSymbolTableRecord
100
AcDbRegAppTableRecord
  2
LibreCad
 70
    0
  0
ENDTAB
  0
TABLE
  2
DIMSTYLE
  5
A
330
0
100
AcDbSymbolTable
 70
    1
100
AcDbDimStyleTable
 71
    1
  0
DIMSTYLE
105
5C
330
A
100
AcDbSymbolTableRecord
100
AcDbDimStyleTableRecord
  2
Standard
 70
    0
 40
2.5
 41
2.5
 42
0.625
 43
0.38
 44
1.25
 45
0
 46
0
 47
0
 48
0
 49
1
140
2.5
141
0.09
142
0
143
25.4
144
1
145
0
146
1
147
0.625
148
0
 71
    0
 72
    0
 73
    0
 74
    1
 75
    0
 76
    0
 77
    0
 78
    8
 79
    0
170
    0
171
    2
172
    0
173
    0
174
    0
175
    0
176
    0
177
    0
178
    0
179
    0
271
    2
272
    4
273
    2
274
    2
275
    0
276
    0
277
    2
278
   44
279
    0
280
    0
281
    0
282
    0
283
    1
284
    0
285
    0
286
    0
288
    0
289
    3
340
STANDARD
341

371
   -2
372
   -2
  0
ENDTAB
  0
TABLE
  2
BLOCK_RECORD
  5
1
330
0
100
AcDbSymbolTable
 70
    2
  0
BLOCK_RECORD
  5
1F
330
1
100
AcDbSymbolTableRecord
100
AcDbBlockTableRecord
  2
*Model_Space
 70
    0
280
    1
281
    0
  0
BLOCK_RECORD
  5
1E
330
1
100
AcDbSymbolTableRecord
100
AcDbBlockTableRecord
  2
*Paper_Space
 70
    0
280
    1
281
    0
  0
ENDTAB
  0
ENDSEC
  0
SECTION
  2
BLOCKS
  0
BLOCK
  5
20
330
1F
100
AcDbEntity
  8
0
100
AcDbBlockBegin
  2
*Model_Space
 70
    0
 10
0
 20
0
 30
0
  3
*Model_Space
  1

  0
ENDBLK
  5
21
330
1F
100
AcDbEntity
  8
0
100
AcDbBlockEnd
  0
BLOCK
  5
1C
330
1B
100
AcDbEntity
  8
0
100
AcDbBlockBegin
  2
*Paper_Space
 70
    0
 10
0
 20
0
 30
0
  3
*Paper_Space
  1

  0
ENDBLK
  5
1D
330
1F
100
AcDbEntity
  8
0
100
AcDbBlockEnd
  0
ENDSEC
  0
SECTION
  2
ENTITIES
  0
LINE
  5
5D
100
AcDbEntity
  8
0
  6
ByLayer
 62
  256
370
   -1
100
AcDbLine
 10
65.25
 20
-0.2500000000000001
 11
65.25
 21
23.25
  0
LINE
  5
5E
100
AcDbEntity
  8
0
  6
ByLayer
 62
  256
370
   -1
100
AcDbLine
 10
52.25
 20
23.25
 11
52.25
 21
-0.2499999999999985
  0
LINE
  5
5F
100
AcDbEntity
  8
0
  6
ByLayer
 62
  256
370
   -1
100
AcDbLine
 10
52.25
 20
-0.2499999999999985
 11
55.75
 21
-0.2499999999999989
  0
LINE
  5
60
100
AcDbEntity
  8
0
  6
ByLayer
 62
  256
370
   -1
100
AcDbLine
 10
55.75
 20
-0.2499999999999989
 11
55.75
 21
-1.249999999999999
  0
LINE
  5
61
100
AcDbEntity
  8
0
  6
ByLayer
 62
  256
370
   -1
100
AcDbLine
 10
55.75
 20
-1.249999999999999
 11
61.75
 21
-1.25
  0
LINE
  5
62
100
AcDbEntity
  8
0
  6
ByLayer
 62
  256
370
   -1
100
AcDbLine
 10
61.75
 20
-0.2499999999999996
 11
65.25
 21
-0.2500000000000001
  0
LINE
  5
63
100
AcDbEntity
  8
0
  6
ByLayer
 62
  256
370
   -1
100
AcDbLine
 10
61.75
 20
-0.2499999999999996
 11
61.75
 21
-1.25
  0
LINE
  5
64
100
AcDbEntity
  8
0
  6
ByLayer
 62
  256
370
   -1
100
AcDbLine
 10
55.75
 20
23.25
 11
52.25
 21
23.25
  0
LINE
  5
65
100
AcDbEntity
  8
0
  6
ByLayer
 62
  256
370
   -1
100
AcDbLine
 10
55.75
 20
24.25
 11
55.75
 21
23.25
  0
LINE
  5
66
100
AcDbEntity
  8
0
  6
ByLayer
 62
  256
370
   -1
100
AcDbLine
 10
61.75
 20
24.25
 11
55.75
 21
24.25
  0
LINE
  5
67
100
AcDbEntity
  8
0
  6
ByLayer
 62
  256
370
   -1
100
AcDbLine
 10
65.25
 20
23.25
 11
61.75
 21
23.25
  0
LINE
  5
68
100
AcDbEntity
  8
0
  6
ByLayer
 62
  256
370
   -1
100
AcDbLine
 10
61.75
 20
24.25
 11
61.75
 21
23.25
  0
CIRCLE
  5
69
100
AcDbEntity
  8
0
  6
ByLayer
 62
  256
370
   -1
100
AcDbCircle
 10
58.75
 20
25.4
 40
0.8
  0
CIRCLE
  5
6A
100
AcDbEntity
  8
0
  6
ByLayer
 62
  256
370
   -1
100
AcDbCircle
 10
58.75
 20
-2.4
 40
0.9
  0
LINE
  5
6B
100
AcDbEntity
  8
0
  6
ByLayer
 62
  256
370
   -1
100
AcDbLine
 10
65.25
 20
-70.25
 11
65.25
 21
-46.75
  0
LINE
  5
6C
100
AcDbEntity
  8
0
  6
ByLayer
 62
  256
370
   -1
100
AcDbLine
 10
52.25
 20
-46.75
 11
52.25
 21
-70.25
  0
LINE
  5
6D
100
AcDbEntity
  8
0
  6
ByLayer
 62
  256
370
   -1
100
AcDbLine
 10
52.25
 20
-70.25
 11
55.75
 21
-70.25
  0
LINE
  5
6E
100
AcDbEntity
  8
0
  6
ByLayer
 62
  256
370
   -1
100
AcDbLine
 10
55.75
 20
-70.25
 11
55.75
 21
-71.25
  0
LINE
  5
6F
100
AcDbEntity
  8
0
  6
ByLayer
 62
  256
370
   -1
100
AcDbLine
 10
55.75
 20
-71.25
 11
61.75
 21
-71.25
  0
LINE
  5
70
100
AcDbEntity
  8
0
  6
ByLayer
 62
  256
370
   -1
100
AcDbLine
 10
61.75
 20
-70.25
 11
65.25
 21
-70.25
  0
LINE
  5
71
100
AcDbEntity
  8
0
  6
ByLayer
 62
  256
370
   -1
100
AcDbLine
 10
61.75
 20
-70.25
 11
61.75
 21
-71.25
  0
LINE
  5
72
100
AcDbEntity
  8
0
  6
ByLayer
 62
  256
370
   -1
100
AcDbLine
 10
55.75
 20
-46.75
 11
52.25
 21
-46.75
  0
LINE
  5
73
100
AcDbEntity
  8
0
  6
ByLayer
 62
  256
370
   -1
100
AcDbLine
 10
55.75
 20
-45.75
 11
55.75
 21
-46.75
  0
LINE
  5
74
100
AcDbEntity
  8
0
  6
ByLayer
 62
  256
370
   -1
100
AcDbLine
 10
61.75
 20
-45.75
 11
55.75
 21
-45.75
  0
LINE
  5
75
100
AcDbEntity
  8
0
  6
ByLayer
 62
  256
370
   -1
100
AcDbLine
 10
65.25
 20
-46.75
 11
61.75
 21
-46.75
  0
LINE
  5
76
100
AcDbEntity
  8
0
  6
ByLayer
 62
  256
370
   -1
100
AcDbLine
 10
61.75
 20
-45.75
 11
61.75
 21
-46.75
  0
CIRCLE
  5
77
100
AcDbEntity
  8
0
  6
ByLayer
 62
  256
370
   -1
100
AcDbCircle
 10
58.75
 20
-44.6
 40
0.8
  0
CIRCLE
  5
78
100
AcDbEntity
  8
0
  6
ByLayer
 62
  256
370
   -1
100
AcDbCircle
 10
58.75
 20
-72.40000000000001
 40
0.9
  0
LINE
  5
79
100
AcDbEntity
  8
ref
  6
ByLayer
 62
  256
370
   -1
100
AcDbLine
 10
65.25
 20
23.25
 11
52.25
 21
-0.2499999999999985
  0
LINE
  5
7A
100
AcDbEntity
  8
ref
  6
ByLayer
 62
  256
370
   -1
100
AcDbLine
 10
65.25
 20
-46.75
 11
52.25
 21
-70.25
  0
LINE
  5
7B
100
AcDbEntity
  8
ref
  6
ByLayer
 62
  256
370
   -1
100
AcDbLine
 10
52.25
 20
-46.75
 11
65.25
 21
-70.25
  0
LINE
  5
7C
100
AcDbEntity
  8
ref
  6
ByLayer
 62
  256
370
   -1
100
AcDbLine
 10
52.25
 20
23.25
 11
65.25
 21
-0.2500000000000001
  0
LINE
  5
7D
100
AcDbEntity
  8
0
  6
ByLayer
 62
  256
370
   -1
100
AcDbLine
 10
6.65469875665449
 20
7.787689398770619
 11
-9.962310601229373
 21
24.40469875665449
  0
LINE
  5
7E
100
AcDbEntity
  8
0
  6
ByLayer
 62
  256
370
   -1
100
AcDbLine
 10
-19.15469875665449
 20
15.21231060122937
 11
-2.537689398770637
 21
-1.404698756654495
  0
LINE
  5
7F
100
AcDbEntity
  8
0
  6
ByLayer
 62
  256
370
   -1
100
AcDbLine
 10
-2.537689398770637
 20
-1.404698756654495
 11
-0.06281566461771521
 21
1.070174977498421
  0
LINE
  5
80
100
AcDbEntity
  8
0
  6
ByLayer
 62
  256
370
   -1
100
AcDbLine
 10
-0.06281566461771521
 20
1.070174977498421
 11
0.6442911165688301
 21
0.36306819631187
  0
LINE
  5
81
100
AcDbEntity
  8
0
  6
ByLayer
 62
  256
370
   -1
100
AcDbLine
 10
0.6442911165688301
 20
0.36306819631187
 11
4.886931803688121
 21
4.605708883431156
  0
LINE
  5
82
100
AcDbEntity
  8
0
  6
ByLayer
 62
  256
370
   -1
100
AcDbLine
 10
4.179825022501571
 20
5.312815664617701
 11
6.65469875665449
 21
7.787689398770619
  0
LINE
  5
83
100
AcDbEntity
  8
0
  6
ByLayer
 62
  256
370
   -1
100
AcDbLine
 10
4.179825022501571
 20
5.312815664617701
 11
4.886931803688121
 21
4.605708883431156
  0
LINE
  5
84
100
AcDbEntity
  8
0
  6
ByLayer
 62
  256
370
   -1
100
AcDbLine
 10
-16.67982502250158
 20
17.68718433538229
 11
-19.15469875665449
 21
15.21231060122937
  0
LINE
  5
85
100
AcDbEntity
  8
0
  6
ByLayer
 62
  256
370
   -1
100
AcDbLine
 10
-17.38693180368812
 20
18.39429111656884
 11
-16.67982502250158
 21
17.68718433538229
  0
LINE
  5
86
100
AcDbEntity
  8
0
  6
ByLayer
 62
  256
370
   -1
100
AcDbLine
 10
-13.14429111656884
 20
22.63693180368812
 11
-17.38693180368812
 21
18.39429111656884
  0
LINE
  5
87
100
AcDbEntity
  8
0
  6
ByLayer
 62
  256
370
   -1
100
AcDbLine
 10
-9.962310601229373
 20
24.40469875665449
 11
-12.43718433538229
 21
21.92982502250157
  0
LINE
  5
88
100
AcDbEntity
  8
0
  6
ByLayer
 62
  256
370
   -1
100
AcDbLine
 10
-13.14429111656884
 20
22.63693180368812
 11
-12.43718433538229
 21
21.92982502250157
  0
CIRCLE
  5
89
100
AcDbEntity
  8
0
  6
ByLayer
 62
  256
370
   -1
100
AcDbCircle
 10
-16.07878425849301
 20
21.32878425849301
 40
0.8
  0
CIRCLE
  5
8A
100
AcDbEntity
  8
0
  6
ByLayer
 62
  256
370
   -1
100
AcDbCircle
 10
3.578784258493009
 20
1.671215741506987
 40
0.9
  0
LINE
  5
8B
100
AcDbEntity
  8
ref
  6
ByLayer
 62
  256
370
   -1
100
AcDbLine
 10
-19.15469875665449
 20
15.21231060122937
 11
6.65469875665449
 21
7.787689398770619
  0
LINE
  5
8C
100
AcDbEntity
  8
ref
  6
ByLayer
 62
  256
370
   -1
100
AcDbLine
 10
-9.962310601229373
 20
24.40469875665449
 11
-2.537689398770637
 21
-1.404698756654495
  0
LINE
  5
8D
100
AcDbEntity
  8
0
  6
ByLayer
 62
  256
370
   -1
100
AcDbLine
 10
136.6546987566545
 20
-62.21231060122938
 11
120.0376893987706
 21
-45.59530124334551
  0
LINE
  5
8E
100
AcDbEntity
  8
0
  6
ByLayer
 62
  256
370
   -1
100
AcDbLine
 10
110.8453012433455
 20
-54.78768939877062
 11
127.4623106012294
 21
-71.4046987566545
  0
LINE
  5
8F
100
AcDbEntity
  8
0
  6
ByLayer
 62
  256
370
   -1
100
AcDbLine
 10
127.4623106012294
 20
-71.4046987566545
 11
129.9371843353823
 21
-68.92982502250157
  0
LINE
  5
90
100
AcDbEntity
  8
0
  6
ByLayer
 62
  256
370
   -1
100
AcDbLine
 10
129.9371843353823
 20
-68.92982502250157
 11
130.6442911165688
 21
-69.63693180368813
  0
LINE
  5
91
100
AcDbEntity
  8
0
  6
ByLayer
 62
  256
370
   -1
100
AcDbLine
 10
130.6442911165688
 20
-69.63693180368813
 11
134.8869318036881
 21
-65.39429111656884
  0
LINE
  5
92
100
AcDbEntity
  8
0
  6
ByLayer
 62
  256
370
   -1
100
AcDbLine
 10
134.1798250225016
 20
-64.6871843353823
 11
136.6546987566545
 21
-62.21231060122938
  0
LINE
  5
93
100
AcDbEntity
  8
0
  6
ByLayer
 62
  256
370
   -1
100
AcDbLine
 10
134.1798250225016
 20
-64.6871843353823
 11
134.8869318036881
 21
-65.39429111656884
  0
LINE
  5
94
100
AcDbEntity
  8
0
  6
ByLayer
 62
  256
370
   -1
100
AcDbLine
 10
113.3201749774984
 20
-52.31281566461771
 11
110.8453012433455
 21
-54.78768939877062
  0
LINE
  5
95
100
AcDbEntity
  8
0
  6
ByLayer
 62
  256
370
   -1
100
AcDbLine
 10
112.6130681963119
 20
-51.60570888343116
 11
113.3201749774984
 21
-52.31281566461771
  0
LINE
  5
96
100
AcDbEntity
  8
0
  6
ByLayer
 62
  256
370
   -1
100
AcDbLine
 10
116.8557088834312
 20
-47.36306819631188
 11
112.6130681963119
 21
-51.60570888343116
  0
LINE
  5
97
100
AcDbEntity
  8
0
  6
ByLayer
 62
  256
370
   -1
100
AcDbLine
 10
120.0376893987706
 20
-45.59530124334551
 11
117.5628156646177
 21
-48.07017497749843
  0
LINE
  5
98
100
AcDbEntity
  8
0
  6
ByLayer
 62
  256
370
   -1
100
AcDbLine
 10
116.8557088834312
 20
-47.36306819631188
 11
117.5628156646177
 21
-48.07017497749843
  0
CIRCLE
  5
99
100
AcDbEntity
  8
0
  6
ByLayer
 62
  256
370
   -1
100
AcDbCircle
 10
113.921215741507
 20
-48.67121574150699
 40
0.8
  0
CIRCLE
  5
9A
100
AcDbEntity
  8
0
  6
ByLayer
 62
  256
370
   -1
100
AcDbCircle
 10
133.578784258493
 20
-68.32878425849302
 40
0.9
  0
LINE
  5
9B
100
AcDbEntity
  8
ref
  6
ByLayer
 62
  256
370
   -1
100
AcDbLine
 10
110.8453012433455
 20
-54.78768939877062
 11
136.6546987566545
 21
-62.21231060122938
  0
LINE
  5
9C
100
AcDbEntity
  8
ref
  6
ByLayer
 62
  256
370
   -1
100
AcDbLine
 10
120.0376893987706
 20
-45.59530124334551
 11
127.4623106012294
 21
-71.4046987566545
  0
LINE
  5
9D
100
AcDbEntity
  8
0
  6
ByLayer
 62
  256
370
   -1
100
AcDbLine
 10
120.0376893987706
 20
-1.40469875665449
 11
136.6546987566545
 21
15.21231060122937
  0
LINE
  5
9E
100
AcDbEntity
  8
0
  6
ByLayer
 62
  256
370
   -1
100
AcDbLine
 10
127.4623106012294
 20
24.40469875665449
 11
110.8453012433455
 21
7.787689398770629
  0
LINE
  5
9F
100
AcDbEntity
  8
0
  6
ByLayer
 62
  256
370
   -1
100
AcDbLine
 10
110.8453012433455
 20
7.787689398770629
 11
113.3201749774984
 21
5.312815664617715
  0
LINE
  5
A0
100
AcDbEntity
  8
0
  6
ByLayer
 62
  256
370
   -1
100
AcDbLine
 10
113.3201749774984
 20
5.312815664617715
 11
112.6130681963119
 21
4.605708883431165
  0
LINE
  5
A1
100
AcDbEntity
  8
0
  6
ByLayer
 62
  256
370
   -1
100
AcDbLine
 10
112.6130681963119
 20
4.605708883431165
 11
116.8557088834312
 21
0.3630681963118789
  0
LINE
  5
A2
100
AcDbEntity
  8
0
  6
ByLayer
 62
  256
370
   -1
100
AcDbLine
 10
117.5628156646177
 20
1.070174977498429
 11
120.0376893987706
 21
-1.40469875665449
  0
LINE
  5
A3
100
AcDbEntity
  8
0
  6
ByLayer
 62
  256
370
   -1
100
AcDbLine
 10
117.5628156646177
 20
1.070174977498429
 11
116.8557088834312
 21
0.3630681963118789
  0
LINE
  5
A4
100
AcDbEntity
  8
0
  6
ByLayer
 62
  256
370
   -1
100
AcDbLine
 10
129.9371843353823
 20
21.92982502250157
 11
127.4623106012294
 21
24.40469875665449
  0
LINE
  5
A5
100
AcDbEntity
  8
0
  6
ByLayer
 62
  256
370
   -1
100
AcDbLine
 10
130.6442911165688
 20
22.63693180368812
 11
129.9371843353823
 21
21.92982502250157
  0
LINE
  5
A6
100
AcDbEntity
  8
0
  6
ByLayer
 62
  256
370
   -1
100
AcDbLine
 10
134.8869318036881
 20
18.39429111656884
 11
130.6442911165688
 21
22.63693180368812
  0
LINE
  5
A7
100
AcDbEntity
  8
0
  6
ByLayer
 62
  256
370
   -1
100
AcDbLine
 10
136.6546987566545
 20
15.21231060122937
 11
134.1798250225016
 21
17.68718433538229
  0
LINE
  5
A8
100
AcDbEntity
  8
0
  6
ByLayer
 62
  256
370
   -1
100
AcDbLine
 10
134.8869318036881
 20
18.39429111656884
 11
134.1798250225016
 21
17.68718433538229
  0
CIRCLE
  5
A9
100
AcDbEntity
  8
0
  6
ByLayer
 62
  256
370
   -1
100
AcDbCircle
 10
133.578784258493
 20
21.32878425849301
 40
0.8
  0
CIRCLE
  5
AA
100
AcDbEntity
  8
0
  6
ByLayer
 62
  256
370
   -1
100
AcDbCircle
 10
113.921215741507
 20
1.671215741506989
 40
0.9
  0
LINE
  5
AB
100
AcDbEntity
  8
ref
  6
ByLayer
 62
  256
370
   -1
100
AcDbLine
 10
127.4623106012294
 20
24.40469875665449
 11
120.0376893987706
 21
-1.40469875665449
  0
LINE
  5
AC
100
AcDbEntity
  8
ref
  6
ByLayer
 62
  256
370
   -1
100
AcDbLine
 10
136.6546987566545
 20
15.21231060122937
 11
110.8453012433455
 21
7.787689398770629
  0
LINE
  5
AD
100
AcDbEntity
  8
0
  6
ByLayer
 62
  256
370
   -1
100
AcDbLine
 10
-9.96231060122938
 20
-71.40469875665448
 11
6.654698756654494
 21
-54.78768939877062
  0
LINE
  5
AE
100
AcDbEntity
  8
0
  6
ByLayer
 62
  256
370
   -1
100
AcDbLine
 10
-2.537689398770627
 20
-45.59530124334551
 11
-19.15469875665449
 21
-62.21231060122937
  0
LINE
  5
AF
100
AcDbEntity
  8
0
  6
ByLayer
 62
  256
370
   -1
100
AcDbLine
 10
-19.15469875665449
 20
-62.21231060122937
 11
-16.67982502250158
 21
-64.68718433538228
  0
LINE
  5
B0
100
AcDbEntity
  8
0
  6
ByLayer
 62
  256
370
   -1
100
AcDbLine
 10
-16.67982502250158
 20
-64.68718433538228
 11
-17.38693180368812
 21
-65.39429111656884
  0
LINE
  5
B1
100
AcDbEntity
  8
0
  6
ByLayer
 62
  256
370
   -1
100
AcDbLine
 10
-17.38693180368812
 20
-65.39429111656884
 11
-13.14429111656884
 21
-69.63693180368813
  0
LINE
  5
B2
100
AcDbEntity
  8
0
  6
ByLayer
 62
  256
370
   -1
100
AcDbLine
 10
-12.4371843353823
 20
-68.92982502250157
 11
-9.96231060122938
 21
-71.40469875665448
  0
LINE
  5
B3
100
AcDbEntity
  8
0
  6
ByLayer
 62
  256
370
   -1
100
AcDbLine
 10
-12.4371843353823
 20
-68.92982502250157
 11
-13.14429111656884
 21
-69.63693180368813
  0
LINE
  5
B4
100
AcDbEntity
  8
0
  6
ByLayer
 62
  256
370
   -1
100
AcDbLine
 10
-0.0628156646177107
 20
-48.07017497749843
 11
-2.537689398770627
 21
-45.59530124334551
  0
LINE
  5
B5
100
AcDbEntity
  8
0
  6
ByLayer
 62
  256
370
   -1
100
AcDbLine
 10
0.6442911165688372
 20
-47.36306819631187
 11
-0.0628156646177107
 21
-48.07017497749843
  0
LINE
  5
B6
100
AcDbEntity
  8
0
  6
ByLayer
 62
  256
370
   -1
100
AcDbLine
 10
4.886931803688125
 20
-51.60570888343116
 11
0.6442911165688372
 21
-47.36306819631187
  0
LINE
  5
B7
100
AcDbEntity
  8
0
  6
ByLayer
 62
  256
370
   -1
100
AcDbLine
 10
6.654698756654494
 20
-54.78768939877062
 11
4.179825022501575
 21
-52.31281566461771
  0
LINE
  5
B8
100
AcDbEntity
  8
0
  6
ByLayer
 62
  256
370
   -1
100
AcDbLine
 10
4.886931803688125
 20
-51.60570888343116
 11
4.179825022501575
 21
-52.31281566461771
  0
CIRCLE
  5
B9
100
AcDbEntity
  8
0
  6
ByLayer
 62
  256
370
   -1
100
AcDbCircle
 10
3.578784258493011
 20
-48.67121574150699
 40
0.8
  0
CIRCLE
  5
BA
100
AcDbEntity
  8
0
  6
ByLayer
 62
  256
370
   -1
100
AcDbCircle
 10
-16.07878425849302
 20
-68.32878425849302
 40
0.9
  0
LINE
  5
BB
100
AcDbEntity
  8
ref
  6
ByLayer
 62
  256
370
   -1
100
AcDbLine
 10
-2.537689398770627
 20
-45.59530124334551
 11
-9.96231060122938
 21
-71.40469875665448
  0
LINE
  5
BC
100
AcDbEntity
  8
ref
  6
ByLayer
 62
  256
370
   -1
100
AcDbLine
 10
6.654698756654494
 20
-54.78768939877062
 11
-19.15469875665449
 21
-62.21231060122937
  0
ARC
  5
BD
100
AcDbEntity
  8
0
  6
ByLayer
 62
  256
370
   -1
100
AcDbCircle
 10
3.16941738241591
 20
-11.253941161572
 40
5
100
AcDbArc
 50
134.9999999999999
 51
180
  0
ARC
  5
BE
100
AcDbEntity
  8
0
  6
ByLayer
 62
  256
370
   -1
100
AcDbCircle
 10
3.169417382415924
 20
-35.74605883842801
 40
5
100
AcDbArc
 50
180
 51
224.9999999999999
  0
ARC
  5
BF
100
AcDbEntity
  8
0
  6
ByLayer
 62
  256
370
   -1
100
AcDbCircle
 10
114.3305826175841
 20
-11.25394116157199
 40
5
100
AcDbArc
 50
0
 51
45.00000000000002
  0
ARC
  5
C0
100
AcDbEntity
  8
0
  6
ByLayer
 62
  256
370
   -1
100
AcDbCircle
 10
114.3305826175841
 20
-35.74605883842801
 40
5
100
AcDbArc
 50
314.9999999999999
 51
0
  0
LINE
  5
C1
100
AcDbEntity
  8
0
  6
ByLayer
 62
  256
370
   -1
100
AcDbLine
 10
117.8661165235168
 20
-39.28159274436075
 11
106.6026605562262
 21
-50.54504871165133
  0
ARC
  5
C2
100
AcDbEntity
  8
0
  6
ByLayer
 62
  256
370
   -1
100
AcDbCircle
 10
110.1381944621589
 20
-54.08058261758408
 40
5
100
AcDbArc
 50
134.9999999999999
 51
224.9999999999999
  0
LINE
  5
C3
100
AcDbEntity
  8
0
  6
ByLayer
 62
  256
370
   -1
100
AcDbLine
 10
106.6026605562262
 20
3.545048711651341
 11
117.8661165235168
 21
-7.718407255639249
  0
ARC
  5
C4
100
AcDbEntity
  8
0
  6
ByLayer
 62
  256
370
   -1
100
AcDbCircle
 10
110.1381944621589
 20
7.08058261758408
 40
5
100
AcDbArc
 50
135
 51
225
  0
LINE
  5
C5
100
AcDbEntity
  8
0
  6
ByLayer
 62
  256
370
   -1
100
AcDbLine
 10
-0.3661165235168247
 20
-7.718407255639256
 11
10.89733944377378
 21
3.54504871165133
  0
ARC
  5
C6
100
AcDbEntity
  8
0
  6
ByLayer
 62
  256
370
   -1
100
AcDbCircle
 10
7.36180553784104
 20
7.080582617584069
 40
5
100
AcDbArc
 50
314.9999999999999
 51
44.99999999999999
  0
LINE
  5
C7
100
AcDbEntity
  8
0
  6
ByLayer
 62
  256
370
   -1
100
AcDbLine
 10
10.89733944377378
 20
-50.54504871165135
 11
-0.3661165235168191
 21
-39.28159274436074
  0
ARC
  5
C8
100
AcDbEntity
  8
0
  6
ByLayer
 62
  256
370
   -1
100
AcDbCircle
 10
7.36180553784104
 20
-54.08058261758408
 40
5
100
AcDbArc
 50
314.9999999999999
 51
44.99999999999997
  0
ARC
  5
C9
100
AcDbEntity
  8
0
  6
ByLayer
 62
  256
370
   -1
100
AcDbCircle
 10
42.25
 20
-33.5
 40
5
100
AcDbArc
 50
0
 51
90.00000000000009
  0
LINE
  5
CA
100
AcDbEntity
  8
0
  6
ByLayer
 62
  256
370
   -1
100
AcDbLine
 10
47.25
 20
-33.5
 11
47.25
 21
-58.75304832720494
  0
ARC
  5
CB
100
AcDbEntity
  8
0
  6
ByLayer
 62
  256
370
   -1
100
AcDbCircle
 10
42.25
 20
-58.75304832720494
 40
5
100
AcDbArc
 50
270
 51
0
  0
ARC
  5
CC
100
AcDbEntity
  8
0
  6
ByLayer
 62
  256
370
   -1
100
AcDbCircle
 10
75.25
 20
-58.75304832720494
 40
5
100
AcDbArc
 50
180
 51
270
  0
LINE
  5
CD
100
AcDbEntity
  8
0
  6
ByLayer
 62
  256
370
   -1
100
AcDbLine
 10
70.25
 20
-58.75304832720494
 11
70.25
 21
-33.5
  0
ARC
  5
CE
100
AcDbEntity
  8
0
  6
ByLayer
 62
  256
370
   -1
100
AcDbCircle
 10
75.25
 20
-33.5
 40
5
100
AcDbArc
 50
90
 51
180
  0
ARC
  5
CF
100
AcDbEntity
  8
0
  6
ByLayer
 62
  256
370
   -1
100
AcDbCircle
 10
75.25
 20
-13.5
 40
5
100
AcDbArc
 50
180
 51
270
  0
LINE
  5
D0
100
AcDbEntity
  8
0
  6
ByLayer
 62
  256
370
   -1
100
AcDbLine
 10
70.25
 20
-13.5
 11
70.25
 21
11.75304832720494
  0
ARC
  5
D1
100
AcDbEntity
  8
0
  6
ByLayer
 62
  256
370
   -1
100
AcDbCircle
 10
75.25
 20
11.75304832720494
 40
5
100
AcDbArc
 50
90
 51
180
  0
LINE
  5
D2
100
AcDbEntity
  8
0
  6
ByLayer
 62
  256
370
   -1
100
AcDbLine
 10
119.3305826175841
 20
-11.25394116157199
 11
119.3305826175841
 21
-13.5
  0
LINE
  5
D3
100
AcDbEntity
  8
0
  6
ByLayer
 62
  256
370
   -1
100
AcDbLine
 10
75.25
 20
-18.5
 11
114.3305826175841
 21
-18.5
  0
ARC
  5
D4
100
AcDbEntity
  8
0
  6
ByLayer
 62
  256
370
   -1
100
AcDbCircle
 10
114.3305826175841
 20
-13.5
 40
5
100
AcDbArc
 50
270
 51
0
  0
LINE
  5
D5
100
AcDbEntity
  8
0
  6
ByLayer
 62
  256
370
   -1
100
AcDbLine
 10
75.25
 20
-28.5
 11
114.3305826175841
 21
-28.5
  0
LINE
  5
D6
100
AcDbEntity
  8
0
  6
ByLayer
 62
  256
370
   -1
100
AcDbLine
 10
119.3305826175841
 20
-33.5
 11
119.3305826175841
 21
-35.74605883842801
  0
ARC
  5
D7
100
AcDbEntity
  8
0
  6
ByLayer
 62
  256
370
   -1
100
AcDbCircle
 10
114.3305826175841
 20
-33.5
 40
5
100
AcDbArc
 50
0
 51
90
  0
ARC
  5
D8
100
AcDbEntity
  8
0
  6
ByLayer
 62
  256
370
   -1
100
AcDbCircle
 10
42.25
 20
11.75304832720494
 40
5
100
AcDbArc
 50
0
 51
90
  0
LINE
  5
D9
100
AcDbEntity
  8
0
  6
ByLayer
 62
  256
370
   -1
100
AcDbLine
 10
47.25
 20
11.75304832720494
 11
47.25
 21
-13.5
  0
ARC
  5
DA
100
AcDbEntity
  8
0
  6
ByLayer
 62
  256
370
   -1
100
AcDbCircle
 10
42.25
 20
-13.5
 40
5
100
AcDbArc
 50
270
 51
0
  0
LINE
  5
DB
100
AcDbEntity
  8
0
  6
ByLayer
 62
  256
370
   -1
100
AcDbLine
 10
-1.83058261758409
 20
-11.253941161572
 11
-1.830582617584089
 21
-13.5
  0
LINE
  5
DC
100
AcDbEntity
  8
0
  6
ByLayer
 62
  256
370
   -1
100
AcDbLine
 10
3.169417382415911
 20
-18.5
 11
42.25
 21
-18.5
  0
ARC
  5
DD
100
AcDbEntity
  8
0
  6
ByLayer
 62
  256
370
   -1
100
AcDbCircle
 10
3.169417382415911
 20
-13.5
 40
5
100
AcDbArc
 50
180
 51
270
  0
LINE
  5
DE
100
AcDbEntity
  8
0
  6
ByLayer
 62
  256
370
   -1
100
AcDbLine
 10
110.3253787975412
 20
16.75304832720494
 11
75.25
 21
16.75304832720494
  0
LINE
  5
DF
100
AcDbEntity
  8
0
  6
ByLayer
 62
  256
370
   -1
100
AcDbLine
 10
111.0324855787278
 20
15.04594154601839
 11
106.6026605562262
 21
10.61611652351682
  0
ARC
  5
E0
100
AcDbEntity
  8
0
  6
ByLayer
 62
  256
370
   -1
100
AcDbCircle
 10
110.3253787975412
 20
15.75304832720494
 40
1
100
AcDbArc
 50
315
 51
90
  0
LINE
  5
E1
100
AcDbEntity
  8
0
  6
ByLayer
 62
  256
370
   -1
100
AcDbLine
 10
106.6026605562262
 20
-57.61611652351681
 11
111.0324855787278
 21
-62.04594154601838
  0
LINE
  5
E2
100
AcDbEntity
  8
0
  6
ByLayer
 62
  256
370
   -1
100
AcDbLine
 10
110.3253787975412
 20
-63.75304832720494
 11
75.25
 21
-63.75304832720494
  0
ARC
  5
E3
100
AcDbEntity
  8
0
  6
ByLayer
 62
  256
370
   -1
100
AcDbCircle
 10
110.3253787975412
 20
-62.75304832720494
 40
1
100
AcDbArc
 50
270
 51
45
  0
LINE
  5
E4
100
AcDbEntity
  8
0
  6
ByLayer
 62
  256
370
   -1
100
AcDbLine
 10
7.174621202458753
 20
-63.75304832720494
 11
42.25
 21
-63.75304832720494
  0
LINE
  5
E5
100
AcDbEntity
  8
0
  6
ByLayer
 62
  256
370
   -1
100
AcDbLine
 10
6.467514421272204
 20
-62.04594154601838
 11
10.89733944377377
 21
-57.61611652351682
  0
ARC
  5
E6
100
AcDbEntity
  8
0
  6
ByLayer
 62
  256
370
   -1
100
AcDbCircle
 10
7.174621202458753
 20
-62.75304832720494
 40
1
100
AcDbArc
 50
134.9999999999998
 51
270
  0
LINE
  5
E7
100
AcDbEntity
  8
0
  6
ByLayer
 62
  256
370
   -1
100
AcDbLine
 10
10.89733944377378
 20
10.6161165235168
 11
6.467514421272196
 21
15.04594154601839
  0
LINE
  5
E8
100
AcDbEntity
  8
0
  6
ByLayer
 62
  256
370
   -1
100
AcDbLine
 10
7.174621202458745
 20
16.75304832720494
 11
42.25
 21
16.75304832720494
  0
ARC
  5
E9
100
AcDbEntity
  8
0
  6
ByLayer
 62
  256
370
   -1
100
AcDbCircle
 10
7.174621202458745
 20
15.75304832720494
 40
1
100
AcDbArc
 50
90
 51
224.9999999999999
  0
LINE
  5
EA
100
AcDbEntity
  8
0
  6
ByLayer
 62
  256
370
   -1
100
AcDbLine
 10
-1.830582617584077
 20
-33.5
 11
-1.830582617584076
 21
-35.74605883842801
  0
LINE
  5
EB
100
AcDbEntity
  8
0
  6
ByLayer
 62
  256
370
   -1
100
AcDbLine
 10
3.169417382415922
 20
-28.5
 11
42.24999999999999
 21
-28.5
  0
ARC
  5
EC
100
AcDbEntity
  8
0
  6
ByLayer
 62
  256
370
   -1
100
AcDbCircle
 10
3.169417382415923
 20
-33.5
 40
5
100
AcDbArc
 50
90.00000000000001
 51
180
  0
LINE
  5
ED
100
AcDbEntity
  8
ref
  6
ByLayer
 62
  256
370
   -1
100
AcDbLine
 10
-11.50304832720494
 20
-6.499999999999993
 11
129.0030483272049
 21
-6.499999999999996
  0
LINE
  5
EE
100
AcDbEntity
  8
ref
  6
ByLayer
 62
  256
370
   -1
100
AcDbLine
 10
-11.50304832720495
 20
-40.49999999999999
 11
129.0030483272049
 21
-40.5
  0
CIRCLE
  5
EF
100
AcDbEntity
  8
ref
  6
ByLayer
 62
  256
370
   -1
100
AcDbCircle
 10
-9.166815472394521
 20
-6.499999999999993
 40
2.336232854810422
  0
ARC
  5
F0
100
AcDbEntity
  8
0
  6
ByLayer
 62
  256
370
   -1
100
AcDbCircle
 10
-9.166815472394507
 20
-40.49999999999999
 40
2.336232854810434
100
AcDbArc
 50
180
 51
0
  0
LINE
  5
F1
100
AcDbEntity
  8
0
  6
ByLayer
 62
  256
370
   -1
100
AcDbLine
 10
-11.50304832720494
 20
-6.499999999999993
 11
-11.50304832720494
 21
-40.49999999999999
  0
LINE
  5
F2
100
AcDbEntity
  8
0
  6
ByLayer
 62
  256
370
   -1
100
AcDbLine
 10
-6.830582617584099
 20
-6.499999999999991
 11
-6.830582617584072
 21
-40.49999999999999
  0
ARC
  5
F3
100
AcDbEntity
  8
0
  6
ByLayer
 62
  256
370
   -1
100
AcDbCircle
 10
-9.166815472394521
 20
-6.499999999999993
 40
2.336232854810422
100
AcDbArc
 50
4.36e-14
 51
180
  0
ARC
  5
F4
100
AcDbEntity
  8
0
  6
ByLayer
 62
  256
370
   -1
100
AcDbCircle
 10
126.6668154723945
 20
-6.499999999999996
 40
2.336232854810426
100
AcDbArc
 50
0
 51
180
  0
LINE
  5
F5
100
AcDbEntity
  8
0
  6
ByLayer
 62
  256
370
   -1
100
AcDbLine
 10
124.3305826175841
 20
-6.499999999999996
 11
124.3305826175841
 21
-40.5
  0
LINE
  5
F6
100
AcDbEntity
  8
0
  6
ByLayer
 62
  256
370
   -1
100
AcDbLine
 10
129.0030483272049
 20
-6.499999999999996
 11
129.0030483272049
 21
-40.5
  0
ARC
  5
F7
100
AcDbEntity
  8
0
  6
ByLayer
 62
  256
370
   -1
100
AcDbCircle
 10
126.6668154723945
 20
-40.5
 40
2.336232854810426
100
AcDbArc
 50
180
 51
0
  0
CIRCLE
  5
F8
100
AcDbEntity
  8
1
  6
ByLayer
 62
  256
370
   -1
100
AcDbCircle
 10
-16.07878425849301
 20
21.32878425849301
 40
0.8
  0
CIRCLE
  5
F9
100
AcDbEntity
  8
1
  6
ByLayer
 62
  256
370
   -1
100
AcDbCircle
 10
3.578784258493009
 20
1.671215741506987
 40
0.9
  0
CIRCLE
  5
FA
100
AcDbEntity
  8
1
  6
ByLayer
 62
  256
370
   -1
100
AcDbCircle
 10
58.75
 20
25.4
 40
0.8
  0
CIRCLE
  5
FB
100
AcDbEntity
  8
1
  6
ByLayer
 62
  256
370
   -1
100
AcDbCircle
 10
58.75
 20
-2.4
 40
0.9
  0
CIRCLE
  5
FC
100
AcDbEntity
  8
1
  6
ByLayer
 62
  256
370
   -1
100
AcDbCircle
 10
58.75
 20
-44.6
 40
0.8
  0
CIRCLE
  5
FD
100
AcDbEntity
  8
1
  6
ByLayer
 62
  256
370
   -1
100
AcDbCircle
 10
58.75
 20
-72.40000000000001
 40
0.9
  0
CIRCLE
  5
FE
100
AcDbEntity
  8
1
  6
ByLayer
 62
  256
370
   -1
100
AcDbCircle
 10
3.578784258493011
 20
-48.67121574150699
 40
0.8
  0
CIRCLE
  5
FF
100
AcDbEntity
  8
1
  6
ByLayer
 62
  256
370
   -1
100
AcDbCircle
 10
113.921215741507
 20
-48.67121574150699
 40
0.8
  0
CIRCLE
  5
100
100
AcDbEntity
  8
1
  6
ByLayer
 62
  256
370
   -1
100
AcDbCircle
 10
113.921215741507
 20
1.671215741506989
 40
0.9
  0
LINE
  5
101
100
AcDbEntity
  8
1
  6
ByLayer
 62
  256
370
   -1
100
AcDbLine
 10
64.75
 20
24.25
 11
52.75
 21
24.25
  0
LINE
  5
102
100
AcDbEntity
  8
1
  6
ByLayer
 62
  256
370
   -1
100
AcDbLine
 10
52.75
 20
-1.249999999999998
 11
64.75
 21
-1.25
  0
LINE
  5
103
100
AcDbEntity
  8
1
  6
ByLayer
 62
  256
370
   -1
100
AcDbLine
 10
52.75
 20
-5.249999999999998
 11
64.75
 21
-5.250000000000001
  0
LINE
  5
104
100
AcDbEntity
  8
1
  6
ByLayer
 62
  256
370
   -1
100
AcDbLine
 10
64.75
 20
-41.75
 11
52.75
 21
-41.75
  0
LINE
  5
105
100
AcDbEntity
  8
1
  6
ByLayer
 62
  256
370
   -1
100
AcDbLine
 10
64.75
 20
-45.75
 11
52.75
 21
-45.75
  0
LINE
  5
106
100
AcDbEntity
  8
1
  6
ByLayer
 62
  256
370
   -1
100
AcDbLine
 10
52.75
 20
-71.25
 11
64.75
 21
-71.25
  0
LINE
  5
107
100
AcDbEntity
  8
1
  6
ByLayer
 62
  256
370
   -1
100
AcDbLine
 10
116.1486021022446
 20
-42.41332072800605
 11
107.663320728006
 21
-50.89860210224461
  0
LINE
  5
108
100
AcDbEntity
  8
1
  6
ByLayer
 62
  256
370
   -1
100
AcDbLine
 10
118.9770292269908
 20
-45.24174785275224
 11
110.4917478527522
 21
-53.7270292269908
  0
LINE
  5
109
100
AcDbEntity
  8
1
  6
ByLayer
 62
  256
370
   -1
100
AcDbLine
 10
110.4917478527522
 20
6.727029226990806
 11
118.9770292269908
 21
-1.758252147247762
  0
LINE
  5
10A
100
AcDbEntity
  8
1
  6
ByLayer
 62
  256
370
   -1
100
AcDbLine
 10
107.663320728006
 20
3.898602102244614
 11
116.1486021022446
 21
-4.586679271993954
  0
LINE
  5
10B
100
AcDbEntity
  8
1
  6
ByLayer
 62
  256
370
   -1
100
AcDbLine
 10
-11.0229707730092
 20
24.75825214724776
 11
-19.50825214724777
 21
16.2729707730092
  0
LINE
  5
10C
100
AcDbEntity
  8
1
  6
ByLayer
 62
  256
370
   -1
100
AcDbLine
 10
-1.477029226990814
 20
-1.758252147247771
 11
7.008252147247765
 21
6.727029226990798
  0
LINE
  5
10D
100
AcDbEntity
  8
1
  6
ByLayer
 62
  256
370
   -1
100
AcDbLine
 10
1.351397897755374
 20
-4.586679271993965
 11
9.836679271993951
 21
3.898602102244604
  0
LINE
  5
10E
100
AcDbEntity
  8
1
  6
ByLayer
 62
  256
370
   -1
100
AcDbLine
 10
9.83667927199396
 20
-50.89860210224462
 11
1.351397897755389
 21
-42.41332072800604
  0
LINE
  5
10F
100
AcDbEntity
  8
1
  6
ByLayer
 62
  256
370
   -1
100
AcDbLine
 10
7.008252147247767
 20
-53.72702922699081
 11
-1.477029226990804
 21
-45.24174785275223
  0
LINE
  5
110
100
AcDbEntity
  8
1
  6
ByLayer
 62
  256
370
   -1
100
AcDbLine
 10
7.008252147247765
 20
6.727029226990798
 11
9.836679271993951
 21
3.898602102244604
  0
LINE
  5
111
100
AcDbEntity
  8
1
  6
ByLayer
 62
  256
370
   -1
100
AcDbLine
 10
52.75
 20
-1.249999999999998
 11
52.75
 21
-5.249999999999998
  0
LINE
  5
112
100
AcDbEntity
  8
1
  6
ByLayer
 62
  256
370
   -1
100
AcDbLine
 10
52.75
 20
-45.75
 11
52.75
 21
-41.75
  0
LINE
  5
113
100
AcDbEntity
  8
1
  6
ByLayer
 62
  256
370
   -1
100
AcDbLine
 10
64.75
 20
-1.25
 11
64.75
 21
-5.250000000000001
  0
LINE
  5
114
100
AcDbEntity
  8
1
  6
ByLayer
 62
  256
370
   -1
100
AcDbLine
 10
64.75
 20
-41.75
 11
64.75
 21
-45.75
  0
LINE
  5
115
100
AcDbEntity
  8
1
  6
ByLayer
 62
  256
370
   -1
100
AcDbLine
 10
110.4917478527522
 20
6.727029226990806
 11
107.663320728006
 21
3.898602102244614
  0
LINE
  5
116
100
AcDbEntity
  8
1
  6
ByLayer
 62
  256
370
   -1
100
AcDbLine
 10
118.9770292269908
 20
-1.758252147247762
 11
116.1486021022446
 21
-4.586679271993954
  0
LINE
  5
117
100
AcDbEntity
  8
1
  6
ByLayer
 62
  256
370
   -1
100
AcDbLine
 10
116.1486021022446
 20
-42.41332072800605
 11
118.9770292269908
 21
-45.24174785275224
  0
LINE
  5
118
100
AcDbEntity
  8
1
  6
ByLayer
 62
  256
370
   -1
100
AcDbLine
 10
107.663320728006
 20
-50.89860210224461
 11
110.4917478527522
 21
-53.7270292269908
  0
LINE
  5
119
100
AcDbEntity
  8
1
  6
ByLayer
 62
  256
370
   -1
100
AcDbLine
 10
1.351397897755389
 20
-42.41332072800604
 11
-1.477029226990804
 21
-45.24174785275223
  0
LINE
  5
11A
100
AcDbEntity
  8
1
  6
ByLayer
 62
  256
370
   -1
100
AcDbLine
 10
9.83667927199396
 20
-50.89860210224462
 11
7.008252147247767
 21
-53.72702922699081
  0
LINE
  5
11B
100
AcDbEntity
  8
1
  6
ByLayer
 62
  256
370
   -1
100
AcDbLine
 10
1.351397897755374
 20
-4.586679271993965
 11
-1.477029226990814
 21
-1.758252147247771
  0
ARC
  5
11C
100
AcDbEntity
  8
2
  6
ByLayer
 62
  256
370
   -1
100
AcDbCircle
 10
71.25
 20
15.75304832720494
 40
3
100
AcDbArc
 50
90
 51
180.0000000000001
  0
ARC
  5
11D
100
AcDbEntity
  8
2
  6
ByLayer
 62
  256
370
   -1
100
AcDbCircle
 10
70.25
 20
16.75304832720494
 40
3
100
AcDbArc
 50
90
 51
180.0000000000001
  0
ARC
  5
11E
100
AcDbEntity
  8
2
  6
ByLayer
 62
  256
370
   -1
100
AcDbCircle
 10
46.25
 20
15.75304832720494
 40
3
100
AcDbArc
 50
0
 51
90
  0
ARC
  5
11F
100
AcDbEntity
  8
2
  6
ByLayer
 62
  256
370
   -1
100
AcDbCircle
 10
47.25
 20
16.75304832720494
 40
3
100
AcDbArc
 50
0
 51
90
  0
LINE
  5
120
100
AcDbEntity
  8
2
  6
ByLayer
 62
  256
370
   -1
100
AcDbLine
 10
68.25
 20
-62.75304832720494
 11
68.25
 21
15.75304832720494
  0
ARC
  5
121
100
AcDbEntity
  8
2
  6
ByLayer
 62
  256
370
   -1
100
AcDbCircle
 10
71.25
 20
-62.75304832720494
 40
3
100
AcDbArc
 50
180
 51
270
  0
ARC
  5
122
100
AcDbEntity
  8
2
  6
ByLayer
 62
  256
370
   -1
100
AcDbCircle
 10
70.25
 20
-63.75304832720494
 40
3
100
AcDbArc
 50
180
 51
270
  0
LINE
  5
123
100
AcDbEntity
  8
2
  6
ByLayer
 62
  256
370
   -1
100
AcDbLine
 10
49.25
 20
15.75304832720494
 11
49.25
 21
-62.75304832720492
  0
ARC
  5
124
100
AcDbEntity
  8
2
  6
ByLayer
 62
  256
370
   -1
100
AcDbCircle
 10
46.25
 20
-62.75304832720494
 40
3
100
AcDbArc
 50
269.9999999999998
 51
2.714e-13
  0
ARC
  5
125
100
AcDbEntity
  8
2
  6
ByLayer
 62
  256
370
   -1
100
AcDbCircle
 10
47.25
 20
-63.75304832720494
 40
3
100
AcDbArc
 50
270
 51
0
  0
LINE
  5
126
100
AcDbEntity
  8
2
  6
ByLayer
 62
  256
370
   -1
100
AcDbLine
 10
112.0978103337774
 20
19.75304832720494
 11
70.25
 21
19.75304832720494
  0
ARC
  5
127
100
AcDbEntity
  8
2
  6
ByLayer
 62
  256
370
   -1
100
AcDbCircle
 10
112.0978103337774
 20
22.75304832720494
 40
3
100
AcDbArc
 50
270
 51
315.5729959991942
  0
ARC
  5
128
100
AcDbEntity
  8
2
  6
ByLayer
 62
  256
370
   -1
100
AcDbCircle
 10
115.6685245480489
 20
19.25304832720494
 40
2
100
AcDbArc
 50
224.4270040008057
 51
135.5729959991943
  0
LINE
  5
129
100
AcDbEntity
  8
2
  6
ByLayer
 62
  256
370
   -1
100
AcDbLine
 10
112.0978103337774
 20
18.75304832720494
 11
71.25
 21
18.75304832720494
  0
ARC
  5
12A
100
AcDbEntity
  8
2
  6
ByLayer
 62
  256
370
   -1
100
AcDbCircle
 10
112.0978103337774
 20
15.75304832720494
 40
3
100
AcDbArc
 50
44.4270040008058
 51
90
  0
ARC
  5
12B
100
AcDbEntity
  8
2
  6
ByLayer
 62
  256
370
   -1
100
AcDbCircle
 10
128.0030483272049
 20
-46.84781033377742
 40
3
100
AcDbArc
 50
314.4270040008053
 51
0
  0
ARC
  5
12C
100
AcDbEntity
  8
2
  6
ByLayer
 62
  256
370
   -1
100
AcDbCircle
 10
131.5030483272049
 20
-50.41852454804887
 40
2
100
AcDbArc
 50
134.4270040008058
 51
45.57299599919425
  0
ARC
  5
12D
100
AcDbEntity
  8
2
  6
ByLayer
 62
  256
370
   -1
100
AcDbCircle
 10
135.0030483272049
 20
-46.84781033377744
 40
3
100
AcDbArc
 50
179.9999999999999
 51
225.5729959991944
  0
LINE
  5
12E
100
AcDbEntity
  8
2
  6
ByLayer
 62
  256
370
   -1
100
AcDbLine
 10
131.0030483272049
 20
-0.152189666222549
 11
131.0030483272049
 21
-46.84781033377742
  0
LINE
  5
12F
100
AcDbEntity
  8
2
  6
ByLayer
 62
  256
370
   -1
100
AcDbLine
 10
132.0030483272049
 20
-0.1521896662225486
 11
132.0030483272049
 21
-46.84781033377743
  0
ARC
  5
130
100
AcDbEntity
  8
2
  6
ByLayer
 62
  256
370
   -1
100
AcDbCircle
 10
135.0030483272049
 20
-0.152189666222549
 40
3
100
AcDbArc
 50
134.4270040008057
 51
180
  0
ARC
  5
131
100
AcDbEntity
  8
2
  6
ByLayer
 62
  256
370
   -1
100
AcDbCircle
 10
131.5030483272049
 20
3.418524548048875
 40
2
100
AcDbArc
 50
314.4270040008058
 51
225.5729959991941
  0
ARC
  5
132
100
AcDbEntity
  8
2
  6
ByLayer
 62
  256
370
   -1
100
AcDbCircle
 10
128.0030483272049
 20
-0.1521896662225495
 40
3
100
AcDbArc
 50
0
 51
45.57299599919438
  0
ARC
  5
133
100
AcDbEntity
  8
2
  6
ByLayer
 62
  256
370
   -1
100
AcDbCircle
 10
128.0030483272049
 20
-0.1521896662225495
 40
3
100
AcDbArc
 50
0
 51
45.57299599919438
  0
LINE
  5
134
100
AcDbEntity
  8
2
  6
ByLayer
 62
  256
370
   -1
100
AcDbLine
 10
112.0978124585236
 20
-65.75304832720494
 11
71.25
 21
-65.75304832720494
  0
ARC
  5
135
100
AcDbEntity
  8
2
  6
ByLayer
 62
  256
370
   -1
100
AcDbCircle
 10
112.0978124585236
 20
-62.75304832720494
 40
3
100
AcDbArc
 50
270
 51
315.5729959991942
  0
ARC
  5
136
100
AcDbEntity
  8
2
  6
ByLayer
 62
  256
370
   -1
100
AcDbCircle
 10
115.668526672795
 20
-66.25304832720494
 40
2
100
AcDbArc
 50
224.4270040008057
 51
135.5729959991943
  0
LINE
  5
137
100
AcDbEntity
  8
2
  6
ByLayer
 62
  256
370
   -1
100
AcDbLine
 10
112.0978124585236
 20
-66.75304832720494
 11
70.25
 21
-66.75304832720494
  0
ARC
  5
138
100
AcDbEntity
  8
2
  6
ByLayer
 62
  256
370
   -1
100
AcDbCircle
 10
112.0978124585236
 20
-69.75304832720494
 40
3
100
AcDbArc
 50
44.42700400080575
 51
90
  0
LINE
  5
139
100
AcDbEntity
  8
2
  6
ByLayer
 62
  256
370
   -1
100
AcDbLine
 10
5.402187541476359
 20
-65.75304832720494
 11
46.24999999999999
 21
-65.75304832720494
  0
ARC
  5
13A
100
AcDbEntity
  8
2
  6
ByLayer
 62
  256
370
   -1
100
AcDbCircle
 10
5.402187541476359
 20
-62.75304832720494
 40
3
100
AcDbArc
 50
224.4270040008056
 51
270
  0
LINE
  5
13B
100
AcDbEntity
  8
2
  6
ByLayer
 62
  256
370
   -1
100
AcDbLine
 10
5.402187541476358
 20
-66.75304832720494
 11
47.25
 21
-66.75304832720494
  0
ARC
  5
13C
100
AcDbEntity
  8
2
  6
ByLayer
 62
  256
370
   -1
100
AcDbCircle
 10
1.831473327204933
 20
-66.25304832720494
 40
2
100
AcDbArc
 50
44.42700400080581
 51
315.5729959991942
  0
ARC
  5
13D
100
AcDbEntity
  8
2
  6
ByLayer
 62
  256
370
   -1
100
AcDbCircle
 10
5.402187541476358
 20
-69.75304832720494
 40
3
100
AcDbArc
 50
90
 51
135.5729959991944
  0
ARC
  5
13E
100
AcDbEntity
  8
2
  6
ByLayer
 62
  256
370
   -1
100
AcDbCircle
 10
-17.50304832720494
 20
-46.84781033377746
 40
3
100
AcDbArc
 50
314.4270040008059
 51
359.9999999999998
  0
ARC
  5
13F
100
AcDbEntity
  8
2
  6
ByLayer
 62
  256
370
   -1
100
AcDbCircle
 10
-14.00304832720494
 20
-50.41852454804886
 40
2
100
AcDbArc
 50
134.4270040008059
 51
45.57299599919414
  0
ARC
  5
140
100
AcDbEntity
  8
2
  6
ByLayer
 62
  256
370
   -1
100
AcDbCircle
 10
-10.50304832720494
 20
-46.84781033377745
 40
3
100
AcDbArc
 50
180
 51
225.5729959991941
  0
LINE
  5
141
100
AcDbEntity
  8
2
  6
ByLayer
 62
  256
370
   -1
100
AcDbLine
 10
-14.50304832720494
 20
-0.1521896662225513
 11
-14.50304832720494
 21
-46.84781033377747
  0
ARC
  5
142
100
AcDbEntity
  8
2
  6
ByLayer
 62
  256
370
   -1
100
AcDbCircle
 10
-17.50304832720494
 20
-0.1521896662225513
 40
3
100
AcDbArc
 50
0
 51
45.5729959991943
  0
ARC
  5
143
100
AcDbEntity
  8
2
  6
ByLayer
 62
  256
370
   -1
100
AcDbCircle
 10
-14.00304832720494
 20
3.418524548048874
 40
2
100
AcDbArc
 50
314.4270040008057
 51
225.5729959991943
  0
LINE
  5
144
100
AcDbEntity
  8
2
  6
ByLayer
 62
  256
370
   -1
100
AcDbLine
 10
-13.50304832720494
 20
-0.1521896662225495
 11
-13.50304832720494
 21
-46.84781033377745
  0
ARC
  5
145
100
AcDbEntity
  8
2
  6
ByLayer
 62
  256
370
   -1
100
AcDbCircle
 10
-10.50304832720494
 20
-0.1521896662225499
 40
3
100
AcDbArc
 50
134.4270040008057
 51
180
  0
LINE
  5
146
100
AcDbEntity
  8
2
  6
ByLayer
 62
  256
370
   -1
100
AcDbLine
 10
5.402187541476363
 20
19.75304832720494
 11
47.25
 21
19.75304832720494
  0
ARC
  5
147
100
AcDbEntity
  8
2
  6
ByLayer
 62
  256
370
   -1
100
AcDbCircle
 10
5.402187541476363
 20
22.75304832720494
 40
3
100
AcDbArc
 50
224.4270040008057
 51
270
  0
LINE
  5
148
100
AcDbEntity
  8
2
  6
ByLayer
 62
  256
370
   -1
100
AcDbLine
 10
5.402187541476364
 20
18.75304832720494
 11
46.25
 21
18.75304832720494
  0
ARC
  5
149
100
AcDbEntity
  8
2
  6
ByLayer
 62
  256
370
   -1
100
AcDbCircle
 10
1.831473327204938
 20
19.25304832720494
 40
2
100
AcDbArc
 50
44.42700400080567
 51
315.5729959991943
  0
ARC
  5
14A
100
AcDbEntity
  8
2
  6
ByLayer
 62
  256
370
   -1
100
AcDbCircle
 10
5.402187541476364
 20
15.75304832720494
 40
3
100
AcDbArc
 50
90
 51
135.5729959991943
  0
ARC
  5
14B
100
AcDbEntity
  8
0
  6
ByLayer
 62
  256
370
   -1
100
AcDbCircle
 10
57.25
 20
-16.25
 40
5
100
AcDbArc
 50
90
 51
180
  0
LINE
  5
14C
100
AcDbEntity
  8
0
  6
ByLayer
 62
  256
370
   -1
100
AcDbLine
 10
57.25
 20
-11.25
 11
60.25
 21
-11.25
  0
ARC
  5
14D
100
AcDbEntity
  8
0
  6
ByLayer
 62
  256
370
   -1
100
AcDbCircle
 10
60.25
 20
-16.25
 40
5
100
AcDbArc
 50
0
 51
90
  0
LINE
  5
14E
100
AcDbEntity
  8
0
  6
ByLayer
 62
  256
370
   -1
100
AcDbLine
 10
52.25
 20
-16.25
 11
52.25
 21
-30.75
  0
ARC
  5
14F
100
AcDbEntity
  8
0
  6
ByLayer
 62
  256
370
   -1
100
AcDbCircle
 10
57.25
 20
-30.75
 40
5
100
AcDbArc
 50
180
 51
270
  0
LINE
  5
150
100
AcDbEntity
  8
0
  6
ByLayer
 62
  256
370
   -1
100
AcDbLine
 10
60.25
 20
-35.75
 11
57.25
 21
-35.75
  0
LINE
  5
151
100
AcDbEntity
  8
0
  6
ByLayer
 62
  256
370
   -1
100
AcDbLine
 10
65.25
 20
-30.75
 11
65.25
 21
-16.25
  0
ARC
  5
152
100
AcDbEntity
  8
0
  6
ByLayer
 62
  256
370
   -1
100
AcDbCircle
 10
60.25
 20
-30.75
 40
5
100
AcDbArc
 50
270
 51
0
  0
LINE
  5
153
100
AcDbEntity
  8
ref
  6
ByLayer
 62
  256
370
   -1
100
AcDbLine
 10
-11.50304832720494
 20
-23.49999999999999
 11
129.0030483272049
 21
-23.5
  0
ARC
  5
154
100
AcDbEntity
  8
2
  6
ByLayer
 62
  256
370
   -1
100
AcDbCircle
 10
55.25
 20
-33.97422222222109
 40
5
100
AcDbArc
 50
180
 51
270
  0
LINE
  5
155
100
AcDbEntity
  8
2
  6
ByLayer
 62
  256
370
   -1
100
AcDbLine
 10
50.25
 20
-44.97422222222109
 11
50.25
 21
-63.75304832720494
  0
ARC
  5
156
100
AcDbEntity
  8
2
  6
ByLayer
 62
  256
370
   -1
100
AcDbCircle
 10
55.25
 20
-44.97422222222109
 40
5
100
AcDbArc
 50
90
 51
180
  0
LINE
  5
157
100
AcDbEntity
  8
2
  6
ByLayer
 62
  256
370
   -1
100
AcDbLine
 10
55.25
 20
-38.97422222222109
 11
62.25
 21
-38.97422222222109
  0
ARC
  5
158
100
AcDbEntity
  8
2
  6
ByLayer
 62
  256
370
   -1
100
AcDbCircle
 10
62.25
 20
-33.97422222222109
 40
5
100
AcDbArc
 50
270
 51
0
  0
LINE
  5
159
100
AcDbEntity
  8
2
  6
ByLayer
 62
  256
370
   -1
100
AcDbLine
 10
55.25
 20
-39.97422222222109
 11
62.25
 21
-39.97422222222109
  0
LINE
  5
15A
100
AcDbEntity
  8
2
  6
ByLayer
 62
  256
370
   -1
100
AcDbLine
 10
67.25
 20
-63.75304832720494
 11
67.25
 21
-44.97422222222109
  0
ARC
  5
15B
100
AcDbEntity
  8
2
  6
ByLayer
 62
  256
370
   -1
100
AcDbCircle
 10
62.25
 20
-44.97422222222109
 40
5
100
AcDbArc
 50
0
 51
90
  0
LINE
  5
15C
100
AcDbEntity
  8
2
  6
ByLayer
 62
  256
370
   -1
100
AcDbLine
 10
67.25
 20
-33.97422222222109
 11
67.25
 21
-13.02577777777891
  0
ARC
  5
15D
100
AcDbEntity
  8
2
  6
ByLayer
 62
  256
370
   -1
100
AcDbCircle
 10
62.25
 20
-13.02577777777891
 40
5
100
AcDbArc
 50
359.9999999999999
 51
90
  0
LINE
  5
15E
100
AcDbEntity
  8
2
  6
ByLayer
 62
  256
370
   -1
100
AcDbLine
 10
67.25
 20
-2.025777777778906
 11
67.25
 21
16.75304832720494
  0
ARC
  5
15F
100
AcDbEntity
  8
2
  6
ByLayer
 62
  256
370
   -1
100
AcDbCircle
 10
62.25
 20
-2.025777777778906
 40
5
100
AcDbArc
 50
270
 51
0
  0
LINE
  5
160
100
AcDbEntity
  8
2
  6
ByLayer
 62
  256
370
   -1
100
AcDbLine
 10
55.25
 20
-7.025777777778906
 11
62.25
 21
-7.025777777778906
  0
LINE
  5
161
100
AcDbEntity
  8
2
  6
ByLayer
 62
  256
370
   -1
100
AcDbLine
 10
50.25
 20
16.75304832720494
 11
50.25
 21
-2.025777777778902
  0
ARC
  5
162
100
AcDbEntity
  8
2
  6
ByLayer
 62
  256
370
   -1
100
AcDbCircle
 10
55.25
 20
-2.025777777778906
 40
5
100
AcDbArc
 50
180
 51
270
  0
LINE
  5
163
100
AcDbEntity
  8
2
  6
ByLayer
 62
  256
370
   -1
100
AcDbLine
 10
55.25
 20
-8.025777777778906
 11
62.25
 21
-8.025777777778906
  0
LINE
  5
164
100
AcDbEntity
  8
2
  6
ByLayer
 62
  256
370
   -1
100
AcDbLine
 10
50.25
 20
-13.02577777777891
 11
50.25
 21
-33.97422222222109
  0
ARC
  5
165
100
AcDbEntity
  8
2
  6
ByLayer
 62
  256
370
   -1
100
AcDbCircle
 10
55.25
 20
-13.02577777777891
 40
5
100
AcDbArc
 50
90
 51
180
  0
LINE
  5
166
100
AcDbEntity
  8
ref
  6
ByLayer
 62
  256
370
   -1
100
AcDbLine
 10
-8.753048327204942
 20
-23.49999999999999
 11
-8.753048327204942
 21
-21.49999999999999
  0
LINE
  5
167
100
AcDbEntity
  8
ref
  6
ByLayer
 62
  256
370
   -1
100
AcDbLine
 10
6.246951672795058
 20
-23.5
 11
6.246951672795058
 21
-21.5
  0
LINE
  5
168
100
AcDbEntity
  8
ref
  6
ByLayer
 62
  256
370
   -1
100
AcDbLine
 10
21.24695167279506
 20
-23.5
 11
21.24695167279506
 21
-21.5
  0
LINE
  5
169
100
AcDbEntity
  8
ref
  6
ByLayer
 62
  256
370
   -1
100
AcDbLine
 10
36.24695167279506
 20
-23.5
 11
36.24695167279506
 21
-21.5
  0
LINE
  5
16A
100
AcDbEntity
  8
ref
  6
ByLayer
 62
  256
370
   -1
100
AcDbLine
 10
51.24695167279506
 20
-23.50000000000001
 11
51.24695167279506
 21
-21.50000000000001
  0
LINE
  5
16B
100
AcDbEntity
  8
ref
  6
ByLayer
 62
  256
370
   -1
100
AcDbLine
 10
66.24695167279506
 20
-23.50000000000001
 11
66.24695167279506
 21
-21.50000000000001
  0
LINE
  5
16C
100
AcDbEntity
  8
ref
  6
ByLayer
 62
  256
370
   -1
100
AcDbLine
 10
81.24695167279506
 20
-23.50000000000001
 11
81.24695167279506
 21
-21.50000000000001
  0
LINE
  5
16D
100
AcDbEntity
  8
ref
  6
ByLayer
 62
  256
370
   -1
100
AcDbLine
 10
96.24695167279506
 20
-23.50000000000002
 11
96.24695167279506
 21
-21.50000000000002
  0
LINE
  5
16E
100
AcDbEntity
  8
ref
  6
ByLayer
 62
  256
370
   -1
100
AcDbLine
 10
111.2469516727951
 20
-23.50000000000002
 11
111.2469516727951
 21
-21.50000000000002
  0
LINE
  5
16F
100
AcDbEntity
  8
ref
  6
ByLayer
 62
  256
370
   -1
100
AcDbLine
 10
126.2469516727951
 20
-23.50000000000002
 11
126.2469516727951
 21
-21.50000000000002
  0
CIRCLE
  5
170
100
AcDbEntity
  8
0
  6
ByLayer
 62
  256
370
   -1
100
AcDbCircle
 10
6.246951672795058
 20
-23.5
 40
1.75
  0
CIRCLE
  5
171
100
AcDbEntity
  8
0
  6
ByLayer
 62
  256
370
   -1
100
AcDbCircle
 10
21.24695167279506
 20
-23.5
 40
1.75
  0
CIRCLE
  5
172
100
AcDbEntity
  8
0
  6
ByLayer
 62
  256
370
   -1
100
AcDbCircle
 10
36.24695167279506
 20
-23.5
 40
1.75
  0
CIRCLE
  5
173
100
AcDbEntity
  8
0
  6
ByLayer
 62
  256
370
   -1
100
AcDbCircle
 10
81.24695167279506
 20
-23.50000000000001
 40
1.75
  0
CIRCLE
  5
174
100
AcDbEntity
  8
0
  6
ByLayer
 62
  256
370
   -1
100
AcDbCircle
 10
96.24695167279506
 20
-23.50000000000002
 40
1.75
  0
CIRCLE
  5
175
100
AcDbEntity
  8
0
  6
ByLayer
 62
  256
370
   -1
100
AcDbCircle
 10
111.2469516727951
 20
-23.50000000000002
 40
1.75
  0
LINE
  5
176
100
AcDbEntity
  8
ref
  6
ByLayer
 62
  256
370
   -1
100
AcDbLine
 10
58.75
 20
29.25
 11
58.75
 21
-76.25
  0
CIRCLE
  5
177
100
AcDbEntity
  8
2
  6
ByLayer
 62
  256
370
   -1
100
AcDbCircle
 10
111.2469516727951
 20
-23.50000000000002
 40
1.75
  0
CIRCLE
  5
178
100
AcDbEntity
  8
2
  6
ByLayer
 62
  256
370
   -1
100
AcDbCircle
 10
96.24695167279506
 20
-23.50000000000002
 40
1.75
  0
CIRCLE
  5
179
100
AcDbEntity
  8
2
  6
ByLayer
 62
  256
370
   -1
100
AcDbCircle
 10
81.24695167279506
 20
-23.50000000000001
 40
1.75
  0
CIRCLE
  5
17A
100
AcDbEntity
  8
2
  6
ByLayer
 62
  256
370
   -1
100
AcDbCircle
 10
36.24695167279506
 20
-23.5
 40
1.75
  0
CIRCLE
  5
17B
100
AcDbEntity
  8
2
  6
ByLayer
 62
  256
370
   -1
100
AcDbCircle
 10
21.24695167279506
 20
-23.5
 40
1.75
  0
CIRCLE
  5
17C
100
AcDbEntity
  8
2
  6
ByLayer
 62
  256
370
   -1
100
AcDbCircle
 10
6.246951672795058
 20
-23.5
 40
1.75
  0
CIRCLE
  5
17D
100
AcDbEntity
  8
2
  6
ByLayer
 62
  256
370
   -1
100
AcDbCircle
 10
6.246951672795058
 20
-23.5
 40
3.25
  0
CIRCLE
  5
17E
100
AcDbEntity
  8
2
  6
ByLayer
 62
  256
370
   -1
100
AcDbCircle
 10
21.24695167279506
 20
-23.5
 40
3.25
  0
CIRCLE
  5
17F
100
AcDbEntity
  8
2
  6
ByLayer
 62
  256
370
   -1
100
AcDbCircle
 10
36.24695167279506
 20
-23.5
 40
3.25
  0
CIRCLE
  5
180
100
AcDbEntity
  8
2
  6
ByLayer
 62
  256
370
   -1
100
AcDbCircle
 10
81.24695167279506
 20
-23.50000000000001
 40
3.25
  0
CIRCLE
  5
181
100
AcDbEntity
  8
2
  6
ByLayer
 62
  256
370
   -1
100
AcDbCircle
 10
96.24695167279506
 20
-23.50000000000002
 40
3.25
  0
CIRCLE
  5
182
100
AcDbEntity
  8
2
  6
ByLayer
 62
  256
370
   -1
100
AcDbCircle
 10
111.2469516727951
 20
-23.50000000000002
 40
3.25
  0
CIRCLE
  5
183
100
AcDbEntity
  8
10
  6
ByLayer
 62
  256
370
   -1
100
AcDbCircle
 10
-10.245153313704
 20
15.49515331370399
 40
3.25
  0
CIRCLE
  5
184
100
AcDbEntity
  8
10
  6
ByLayer
 62
  256
370
   -1
100
AcDbCircle
 10
58.75
 20
17.15
 40
3.25
  0
CIRCLE
  5
185
100
AcDbEntity
  8
10
  6
ByLayer
 62
  256
370
   -1
100
AcDbCircle
 10
127.745153313704
 20
15.49515331370399
 40
3.25
  0
CIRCLE
  5
186
100
AcDbEntity
  8
10
  6
ByLayer
 62
  256
370
   -1
100
AcDbCircle
 10
127.745153313704
 20
-62.49515331370401
 40
3.25
  0
CIRCLE
  5
187
100
AcDbEntity
  8
10
  6
ByLayer
 62
  256
370
   -1
100
AcDbCircle
 10
58.75
 20
-64.15000000000001
 40
3.25
  0
CIRCLE
  5
188
100
AcDbEntity
  8
10
  6
ByLayer
 62
  256
370
   -1
100
AcDbCircle
 10
-10.245153313704
 20
-62.495153313704
 40
3.25
  0
CIRCLE
  5
189
100
AcDbEntity
  8
10
  6
ByLayer
 62
  256
370
   -1
100
AcDbCircle
 10
6.246951672795058
 20
-23.5
 40
1.75
  0
CIRCLE
  5
18A
100
AcDbEntity
  8
10
  6
ByLayer
 62
  256
370
   -1
100
AcDbCircle
 10
21.24695167279506
 20
-23.5
 40
1.75
  0
CIRCLE
  5
18B
100
AcDbEntity
  8
10
  6
ByLayer
 62
  256
370
   -1
100
AcDbCircle
 10
36.24695167279506
 20
-23.5
 40
1.75
  0
CIRCLE
  5
18C
100
AcDbEntity
  8
10
  6
ByLayer
 62
  256
370
   -1
100
AcDbCircle
 10
81.24695167279506
 20
-23.50000000000001
 40
1.75
  0
CIRCLE
  5
18D
100
AcDbEntity
  8
10
  6
ByLayer
 62
  256
370
   -1
100
AcDbCircle
 10
96.24695167279506
 20
-23.50000000000002
 40
1.75
  0
CIRCLE
  5
18E
100
AcDbEntity
  8
10
  6
ByLayer
 62
  256
370
   -1
100
AcDbCircle
 10
111.2469516727951
 20
-23.50000000000002
 40
1.75
  0
ARC
  5
18F
100
AcDbEntity
  8
10
  6
ByLayer
 62
  256
370
   -1
100
AcDbCircle
 10
102.4657252512863
 20
-10.25000000000002
 40
5
100
AcDbArc
 50
269.9999999999998
 51
337.0675853096752
  0
ARC
  5
190
100
AcDbEntity
  8
10
  6
ByLayer
 62
  256
370
   -1
100
AcDbCircle
 10
102.4657252512863
 20
-36.75000000000002
 40
5
100
AcDbArc
 50
22.93241469032485
 51
90.00000000000033
  0
ARC
  5
191
100
AcDbEntity
  8
10
  6
ByLayer
 62
  256
370
   -1
100
AcDbCircle
 10
15.02944260570661
 20
-36.75
 40
5
100
AcDbArc
 50
90
 51
157.0751835723055
  0
ARC
  5
192
100
AcDbEntity
  8
10
  6
ByLayer
 62
  256
370
   -1
100
AcDbCircle
 10
45.5
 20
-10.25000000000001
 40
5
100
AcDbArc
 50
270
 51
2.04e-14
  0
LINE
  5
193
100
AcDbEntity
  8
10
  6
ByLayer
 62
  256
370
   -1
100
AcDbLine
 10
72
 20
-15.25000000000001
 11
102.4657252512863
 21
-15.25000000000002
  0
ARC
  5
194
100
AcDbEntity
  8
10
  6
ByLayer
 62
  256
370
   -1
100
AcDbCircle
 10
72
 20
-10.25000000000001
 40
5
100
AcDbArc
 50
179.9999999999999
 51
270
  0
LINE
  5
195
100
AcDbEntity
  8
10
  6
ByLayer
 62
  256
370
   -1
100
AcDbLine
 10
72
 20
-31.75000000000001
 11
102.4657252512863
 21
-31.75000000000002
  0
ARC
  5
196
100
AcDbEntity
  8
10
  6
ByLayer
 62
  256
370
   -1
100
AcDbCircle
 10
72
 20
-36.75000000000001
 40
5
100
AcDbArc
 50
90
 51
180
  0
LINE
  5
197
100
AcDbEntity
  8
10
  6
ByLayer
 62
  256
370
   -1
100
AcDbLine
 10
15.02944260570661
 20
-31.75
 11
45.5
 21
-31.75000000000001
  0
ARC
  5
198
100
AcDbEntity
  8
10
  6
ByLayer
 62
  256
370
   -1
100
AcDbCircle
 10
45.5
 20
-36.75000000000001
 40
5
100
AcDbArc
 50
0
 51
90
  0
LINE
  5
199
100
AcDbEntity
  8
10
  6
ByLayer
 62
  256
370
   -1
100
AcDbLine
 10
50.5
 20
17.15
 11
50.5
 21
-10.25
  0
LINE
  5
19A
100
AcDbEntity
  8
10
  6
ByLayer
 62
  256
370
   -1
100
AcDbLine
 10
67
 20
17.15
 11
67
 21
-10.25000000000001
  0
ARC
  5
19B
100
AcDbEntity
  8
10
  6
ByLayer
 62
  256
370
   -1
100
AcDbCircle
 10
58.75
 20
17.15
 40
8.25
100
AcDbArc
 50
0
 51
180
  0
LINE
  5
19C
100
AcDbEntity
  8
10
  6
ByLayer
 62
  256
370
   -1
100
AcDbLine
 10
120.1471911233793
 20
18.70972491103955
 11
107.07055082118
 21
-12.19822521050642
  0
ARC
  5
19D
100
AcDbEntity
  8
10
  6
ByLayer
 62
  256
370
   -1
100
AcDbCircle
 10
127.745153313704
 20
15.49515331370399
 40
8.25
100
AcDbArc
 50
337.0675853096751
 51
157.0675853096752
  0
LINE
  5
19E
100
AcDbEntity
  8
10
  6
ByLayer
 62
  256
370
   -1
100
AcDbLine
 10
107.07055082118
 20
-34.80177478949362
 11
120.1471911233793
 21
-65.70972491103957
  0
ARC
  5
19F
100
AcDbEntity
  8
10
  6
ByLayer
 62
  256
370
   -1
100
AcDbCircle
 10
127.745153313704
 20
-62.49515331370401
 40
8.25
100
AcDbArc
 50
202.9324146903249
 51
22.93241469032488
  0
LINE
  5
1A0
100
AcDbEntity
  8
10
  6
ByLayer
 62
  256
370
   -1
100
AcDbLine
 10
67
 20
-36.75000000000001
 11
67
 21
-64.15000000000001
  0
LINE
  5
1A1
100
AcDbEntity
  8
10
  6
ByLayer
 62
  256
370
   -1
100
AcDbLine
 10
50.5
 20
-36.75000000000001
 11
50.5
 21
-64.15000000000001
  0
ARC
  5
1A2
100
AcDbEntity
  8
10
  6
ByLayer
 62
  256
370
   -1
100
AcDbCircle
 10
58.75
 20
-64.15000000000001
 40
8.25
100
AcDbArc
 50
180
 51
0
  0
LINE
  5
1A3
100
AcDbEntity
  8
10
  6
ByLayer
 62
  256
370
   -1
100
AcDbLine
 10
10.4243587130029
 20
-34.80238547418622
 11
-2.646764890742885
 21
-65.70871728129676
  0
ARC
  5
1A4
100
AcDbEntity
  8
10
  6
ByLayer
 62
  256
370
   -1
100
AcDbCircle
 10
-10.245153313704
 20
-62.495153313704
 40
8.25
100
AcDbArc
 50
157.0751835723055
 51
337.0751835723054
  0
LINE
  5
1A5
100
AcDbEntity
  8
10
  6
ByLayer
 62
  256
370
   -1
100
AcDbLine
 10
135.3431155040287
 20
12.28058171636842
 11
121.853469161976
 21
-19.60354957898721
  0
LINE
  5
1A6
100
AcDbEntity
  8
10
  6
ByLayer
 62
  256
370
   -1
100
AcDbLine
 10
121.853469161976
 20
-27.39645042101283
 11
135.3431155040287
 21
-59.28058171636845
  0
ARC
  5
1A7
100
AcDbEntity
  8
10
  6
ByLayer
 62
  256
370
   -1
100
AcDbCircle
 10
131.0631203017635
 20
-23.50000000000002
 40
10
100
AcDbArc
 50
157.0675853096751
 51
202.9324146903249
  0
LINE
  5
1A8
100
AcDbEntity
  8
10
  6
ByLayer
 62
  256
370
   -1
100
AcDbLine
 10
-17.84354173666512
 20
12.28158934611125
 11
-4.357937580080016
 21
-19.60477094837244
  0
LINE
  5
1A9
100
AcDbEntity
  8
10
  6
ByLayer
 62
  256
370
   -1
100
AcDbLine
 10
-4.357937580080017
 20
-27.39522905162756
 11
-17.84354173666512
 21
-59.28158934611126
  0
ARC
  5
1AA
100
AcDbEntity
  8
10
  6
ByLayer
 62
  256
370
   -1
100
AcDbCircle
 10
-13.56810536548744
 20
-23.5
 40
10
100
AcDbArc
 50
337.0751835723054
 51
22.92481642769453
  0
LINE
  5
1AB
100
AcDbEntity
  8
10
  6
ByLayer
 62
  256
370
   -1
100
AcDbLine
 10
15.02944260570661
 20
-15.25
 11
45.5
 21
-15.25000000000001
  0
ARC
  5
1AC
100
AcDbEntity
  8
10
  6
ByLayer
 62
  256
370
   -1
100
AcDbCircle
 10
15.02944260570661
 20
-10.25
 40
5
100
AcDbArc
 50
202.9248164276945
 51
270
  0
LINE
  5
1AD
100
AcDbEntity
  8
10
  6
ByLayer
 62
  256
370
   -1
100
AcDbLine
 10
-2.646764890742876
 20
18.70871728129674
 11
10.4243587130029
 21
-12.19761452581378
  0
ARC
  5
1AE
100
AcDbEntity
  8
10
  6
ByLayer
 62
  256
370
   -1
100
AcDbCircle
 10
-10.245153313704
 20
15.49515331370399
 40
8.25
100
AcDbArc
 50
22.92481642769457
 51
202.9248164276945
  0
LINE
  5
1AF
100
AcDbEntity
  8
10
  6
ByLayer
 62
  256
370
   -1
100
AcDbLine
 10
-2.772335374074888
 20
6.169409802264417
 11
4.485158634477916
 21
-10.99074602796362
  0
ARC
  5
1B0
100
AcDbEntity
  8
10
  6
ByLayer
 62
  256
370
   -1
100
AcDbCircle
 10
1.491854104220506
 20
-12.25669546974258
 40
3.25
100
AcDbArc
 50
202.9248164276946
 51
22.92481642769464
  0
ARC
  5
1B1
100
AcDbEntity
  8
10
  6
ByLayer
 62
  256
370
   -1
100
AcDbCircle
 10
-5.7656399043323
 20
4.903460360485459
 40
3.25
100
AcDbArc
 50
22.92481642769456
 51
202.9248164276947
  0
LINE
  5
1B2
100
AcDbEntity
  8
10
  6
ByLayer
 62
  256
370
   -1
100
AcDbLine
 10
-1.501450426036906
 20
-13.52264491152154
 11
-8.758944434589708
 21
3.637510918706496
  0
LINE
  5
1B3
100
AcDbEntity
  8
10
  6
ByLayer
 62
  256
370
   -1
100
AcDbLine
 10
-2.77233537407492
 20
-53.16940980226439
 11
4.485158634477913
 21
-36.00925397203636
  0
ARC
  5
1B4
100
AcDbEntity
  8
10
  6
ByLayer
 62
  256
370
   -1
100
AcDbCircle
 10
1.491854104220494
 20
-34.74330453025739
 40
3.25
100
AcDbArc
 50
337.0751835723053
 51
157.0751835723054
  0
ARC
  5
1B5
100
AcDbEntity
  8
10
  6
ByLayer
 62
  256
370
   -1
100
AcDbCircle
 10
-5.76563990433228
 20
-51.90346036048545
 40
3.25
100
AcDbArc
 50
157.0751835723053
 51
337.0751835723054
  0
LINE
  5
1B6
100
AcDbEntity
  8
10
  6
ByLayer
 62
  256
370
   -1
100
AcDbLine
 10
-1.501450426036918
 20
-33.47735508847843
 11
-8.758944434589742
 21
-50.63751091870645
  0
LINE
  5
1B7
100
AcDbEntity
  8
10
  6
ByLayer
 62
  256
370
   -1
100
AcDbLine
 10
120.2723353740749
 20
6.169409802264385
 11
113.0148413655221
 21
-10.99074602796362
  0
ARC
  5
1B8
100
AcDbEntity
  8
10
  6
ByLayer
 62
  256
370
   -1
100
AcDbCircle
 10
116.0081458957795
 20
-12.25669546974261
 40
3.25
100
AcDbArc
 50
157.0751835723053
 51
337.0751835723054
  0
ARC
  5
1B9
100
AcDbEntity
  8
10
  6
ByLayer
 62
  256
370
   -1
100
AcDbCircle
 10
123.2656399043323
 20
4.903460360485431
 40
3.25
100
AcDbArc
 50
337.0751835723054
 51
157.0751835723054
  0
LINE
  5
1BA
100
AcDbEntity
  8
10
  6
ByLayer
 62
  256
370
   -1
100
AcDbLine
 10
119.0014504260369
 20
-13.52264491152154
 11
126.2589444345897
 21
3.637510918706444
  0
LINE
  5
1BB
100
AcDbEntity
  8
10
  6
ByLayer
 62
  256
370
   -1
100
AcDbLine
 10
120.2723353740749
 20
-53.16940980226438
 11
113.0148413655221
 21
-36.00925397203636
  0
ARC
  5
1BC
100
AcDbEntity
  8
10
  6
ByLayer
 62
  256
370
   -1
100
AcDbCircle
 10
116.0081458957795
 20
-34.74330453025742
 40
3.25
100
AcDbArc
 50
22.92481642769452
 51
202.9248164276947
  0
ARC
  5
1BD
100
AcDbEntity
  8
10
  6
ByLayer
 62
  256
370
   -1
100
AcDbCircle
 10
123.2656399043323
 20
-51.90346036048546
 40
3.25
100
AcDbArc
 50
202.9248164276946
 51
22.92481642769463
  0
LINE
  5
1BE
100
AcDbEntity
  8
10
  6
ByLayer
 62
  256
370
   -1
100
AcDbLine
 10
119.0014504260369
 20
-33.47735508847843
 11
126.2589444345897
 21
-50.63751091870645
  0
ARC
  5
1BF
100
AcDbEntity
  8
10
  6
ByLayer
 62
  256
370
   -1
100
AcDbCircle
 10
58.75
 20
5.650000000000007
 40
3.25
100
AcDbArc
 50
3.13e-14
 51
180
  0
LINE
  5
1C0
100
AcDbEntity
  8
10
  6
ByLayer
 62
  256
370
   -1
100
AcDbLine
 10
62
 20
5.650000000000009
 11
62
 21
-12.00000000000001
  0
LINE
  5
1C1
100
AcDbEntity
  8
10
  6
ByLayer
 62
  256
370
   -1
100
AcDbLine
 10
55.5
 20
5.650000000000007
 11
55.5
 21
-12.00000000000001
  0
ARC
  5
1C2
100
AcDbEntity
  8
10
  6
ByLayer
 62
  256
370
   -1
100
AcDbCircle
 10
58.75
 20
-12.00000000000001
 40
3.25
100
AcDbArc
 50
180
 51
0
  0
ARC
  5
1C3
100
AcDbEntity
  8
10
  6
ByLayer
 62
  256
370
   -1
100
AcDbCircle
 10
58.75
 20
-52.65
 40
3.25
100
AcDbArc
 50
180
 51
359.9999999999999
  0
LINE
  5
1C4
100
AcDbEntity
  8
10
  6
ByLayer
 62
  256
370
   -1
100
AcDbLine
 10
62
 20
-52.65000000000001
 11
62
 21
-34.99999999999999
  0
LINE
  5
1C5
100
AcDbEntity
  8
10
  6
ByLayer
 62
  256
370
   -1
100
AcDbLine
 10
55.5
 20
-52.65000000000001
 11
55.5
 21
-34.99999999999999
  0
ARC
  5
1C6
100
AcDbEntity
  8
10
  6
ByLayer
 62
  256
370
   -1
100
AcDbCircle
 10
58.75
 20
-34.99999999999999
 40
3.25
100
AcDbArc
 50
0
 51
180
  0
ARC
  5
1C7
100
AcDbEntity
  8
11
  6
ByLayer
 62
  256
370
   -1
100
AcDbCircle
 10
13.70378359696525
 20
-12.25
 40
5
100
AcDbArc
 50
202.9248164276945
 51
270
  0
ARC
  5
1C8
100
AcDbEntity
  8
11
  6
ByLayer
 62
  256
370
   -1
100
AcDbCircle
 10
13.04095409259457
 20
-13.25
 40
5
100
AcDbArc
 50
202.9248164276945
 51
270
  0
ARC
  5
1C9
100
AcDbEntity
  8
11
  6
ByLayer
 62
  256
370
   -1
100
AcDbCircle
 10
103.791193390382
 20
-12.25000000000002
 40
5
100
AcDbArc
 50
270
 51
337.0675853096751
  0
LINE
  5
1CA
100
AcDbEntity
  8
11
  6
ByLayer
 62
  256
370
   -1
100
AcDbLine
 10
13.04095409259456
 20
-18.25
 11
104.4539274599298
 21
-18.25000000000002
  0
ARC
  5
1CB
100
AcDbEntity
  8
11
  6
ByLayer
 62
  256
370
   -1
100
AcDbCircle
 10
104.4539274599298
 20
-13.25000000000002
 40
5
100
AcDbArc
 50
270.0000000000002
 51
337.0675853096751
  0
LINE
  5
1CC
100
AcDbEntity
  8
11
  6
ByLayer
 62
  256
370
   -1
100
AcDbLine
 10
13.70378359696525
 20
-17.25
 11
47.5
 21
-17.25000000000001
  0
ARC
  5
1CD
100
AcDbEntity
  8
11
  6
ByLayer
 62
  256
370
   -1
100
AcDbCircle
 10
47.5
 20
-12.25000000000001
 40
5
100
AcDbArc
 50
270
 51
360
  0
ARC
  5
1CE
100
AcDbEntity
  8
11
  6
ByLayer
 62
  256
370
   -1
100
AcDbCircle
 10
58.5
 20
-12.25000000000001
 40
5
100
AcDbArc
 50
180.0000000000001
 51
270
  0
LINE
  5
1CF
100
AcDbEntity
  8
11
  6
ByLayer
 62
  256
370
   -1
100
AcDbLine
 10
70
 20
-17.25000000000001
 11
103.791193390382
 21
-17.25000000000002
  0
ARC
  5
1D0
100
AcDbEntity
  8
11
  6
ByLayer
 62
  256
370
   -1
100
AcDbCircle
 10
70
 20
-12.25000000000001
 40
5
100
AcDbArc
 50
180
 51
270
  0
LINE
  5
1D1
100
AcDbEntity
  8
11
  6
ByLayer
 62
  256
370
   -1
100
AcDbLine
 10
58.5
 20
-17.25000000000001
 11
59
 21
-17.25000000000001
  0
ARC
  5
1D2
100
AcDbEntity
  8
11
  6
ByLayer
 62
  256
370
   -1
100
AcDbCircle
 10
59
 20
-12.25000000000001
 40
5
100
AcDbArc
 50
270
 51
359.9999999999999
  0
LINE
  5
1D3
100
AcDbEntity
  8
11
  6
ByLayer
 62
  256
370
   -1
100
AcDbLine
 10
118.3985952020803
 20
9.443866368372763
 11
108.3960189602757
 21
-14.19822521050643
  0
ARC
  5
1D4
100
AcDbEntity
  8
11
  6
ByLayer
 62
  256
370
   -1
100
AcDbCircle
 10
113.7937696321866
 20
11.39209157887917
 40
5
100
AcDbArc
 50
337.0675853096751
 51
9.271812813646994
  0
ARC
  5
1D5
100
AcDbEntity
  8
11
  6
ByLayer
 62
  256
370
   -1
100
AcDbCircle
 10
120.2088477787431
 20
12.43936058614142
 40
1.5
100
AcDbArc
 50
304.8633578057029
 51
189.271812813647
  0
LINE
  5
1D6
100
AcDbEntity
  8
11
  6
ByLayer
 62
  256
370
   -1
100
AcDbLine
 10
119.3195603160591
 20
9.054221326271463
 11
109.0587530298235
 21
-15.19822521050642
  0
ARC
  5
1D7
100
AcDbEntity
  8
11
  6
ByLayer
 62
  256
370
   -1
100
AcDbCircle
 10
123.9243858859528
 20
7.105996115765063
 40
5
100
AcDbArc
 50
124.8633578057031
 51
157.0675853096752
  0
ARC
  5
1D8
100
AcDbEntity
  8
11
  6
ByLayer
 62
  256
370
   -1
100
AcDbCircle
 10
-6.424385885952788
 20
7.105996115765102
 40
5
100
AcDbArc
 50
21.65803587860459
 51
55.1366421942969
  0
LINE
  5
1D9
100
AcDbEntity
  8
11
  6
ByLayer
 62
  256
370
   -1
100
AcDbLine
 10
-1.777370239465042
 20
8.951326866957983
 11
8.435870199890852
 21
-15.19761452581378
  0
ARC
  5
1DA
100
AcDbEntity
  8
11
  6
ByLayer
 62
  256
370
   -1
100
AcDbCircle
 10
-2.708847778743149
 20
12.43936058614143
 40
1.5
100
AcDbArc
 50
350.7079780711869
 51
235.1366421942971
  0
LINE
  5
1DB
100
AcDbEntity
  8
11
  6
ByLayer
 62
  256
370
   -1
100
AcDbLine
 10
-0.89922331204182
 20
9.44221442012849
 11
9.098699704261538
 21
-14.19761452581378
  0
ARC
  5
1DC
100
AcDbEntity
  8
11
  6
ByLayer
 62
  256
370
   -1
100
AcDbCircle
 10
3.705860580661889
 20
11.38982894594228
 40
5
100
AcDbArc
 50
170.7079780711869
 51
202.9248164276946
  0
LINE
  5
1DD
100
AcDbEntity
  8
11
  6
ByLayer
 62
  256
370
   -1
100
AcDbLine
 10
64
 20
7.935898384862247
 11
64
 21
-12.25000000000002
  0
ARC
  5
1DE
100
AcDbEntity
  8
11
  6
ByLayer
 62
  256
370
   -1
100
AcDbCircle
 10
59
 20
7.935898384862247
 40
5
100
AcDbArc
 50
0
 51
32.20422750397202
  0
ARC
  5
1DF
100
AcDbEntity
  8
11
  6
ByLayer
 62
  256
370
   -1
100
AcDbCircle
 10
64.5
 20
11.4
 40
1.5
100
AcDbArc
 50
327.7957724960281
 51
212.2042275039721
  0
LINE
  5
1E0
100
AcDbEntity
  8
11
  6
ByLayer
 62
  256
370
   -1
100
AcDbLine
 10
65
 20
7.935898384862247
 11
65
 21
-12.25000000000002
  0
ARC
  5
1E1
100
AcDbEntity
  8
11
  6
ByLayer
 62
  256
370
   -1
100
AcDbCircle
 10
70
 20
7.935898384862248
 40
5
100
AcDbArc
 50
147.795772496028
 51
180
  0
LINE
  5
1E2
100
AcDbEntity
  8
11
  6
ByLayer
 62
  256
370
   -1
100
AcDbLine
 10
53.5
 20
7.935898384862247
 11
53.5
 21
-12.25000000000002
  0
ARC
  5
1E3
100
AcDbEntity
  8
11
  6
ByLayer
 62
  256
370
   -1
100
AcDbCircle
 10
58.5
 20
7.935898384862248
 40
5
100
AcDbArc
 50
147.795772496028
 51
180
  0
ARC
  5
1E4
100
AcDbEntity
  8
11
  6
ByLayer
 62
  256
370
   -1
100
AcDbCircle
 10
53
 20
11.4
 40
1.5
100
AcDbArc
 50
327.7957724960279
 51
212.2042275039721
  0
LINE
  5
1E5
100
AcDbEntity
  8
11
  6
ByLayer
 62
  256
370
   -1
100
AcDbLine
 10
52.5
 20
7.935898384862247
 11
52.5
 21
-12.25000000000001
  0
ARC
  5
1E6
100
AcDbEntity
  8
11
  6
ByLayer
 62
  256
370
   -1
100
AcDbCircle
 10
47.5
 20
7.935898384862247
 40
5
100
AcDbArc
 50
0
 51
32.20422750397202
  0
ARC
  5
1E7
100
AcDbEntity
  8
11
  6
ByLayer
 62
  256
370
   -1
100
AcDbCircle
 10
-13.30194543929314
 20
7.959253088048007
 40
1.5
100
AcDbArc
 50
350.712990661092
 51
235.1416547842022
  0
ARC
  5
1E8
100
AcDbEntity
  8
11
  6
ByLayer
 62
  256
370
   -1
100
AcDbCircle
 10
-6.887145284904036
 20
6.910282650309611
 40
5
100
AcDbArc
 50
170.7129906610921
 51
201.6580358786041
  0
ARC
  5
1E9
100
AcDbEntity
  8
11
  6
ByLayer
 62
  256
370
   -1
100
AcDbCircle
 10
-17.01701693650481
 20
2.625563579780268
 40
5
100
AcDbArc
 50
22.92481642769457
 51
55.14165478420214
  0
ARC
  5
1EA
100
AcDbEntity
  8
11
  6
ByLayer
 62
  256
370
   -1
100
AcDbCircle
 10
-13.30194543929314
 20
-54.95925308804799
 40
1.5
100
AcDbArc
 50
124.8583452157979
 51
9.287009338908051
  0
ARC
  5
1EB
100
AcDbEntity
  8
11
  6
ByLayer
 62
  256
370
   -1
100
AcDbCircle
 10
-6.887145284904037
 20
-53.91028265030959
 40
5
100
AcDbArc
 50
158.3419641213959
 51
189.2870093389079
  0
ARC
  5
1EC
100
AcDbEntity
  8
11
  6
ByLayer
 62
  256
370
   -1
100
AcDbCircle
 10
-17.01701693650482
 20
-49.62556357978025
 40
5
100
AcDbArc
 50
304.8583452157978
 51
337.0751835723054
  0
LINE
  5
1ED
100
AcDbEntity
  8
11
  6
ByLayer
 62
  256
370
   -1
100
AcDbLine
 10
-12.4119330438011
 20
4.573178105594051
 11
-1.362725622483596
 21
-21.55238547418621
  0
LINE
  5
1EE
100
AcDbEntity
  8
11
  6
ByLayer
 62
  256
370
   -1
100
AcDbLine
 10
-12.4119330438011
 20
-51.57317810559404
 11
-1.362725622483595
 21
-25.44761452581377
  0
ARC
  5
1EF
100
AcDbEntity
  8
11
  6
ByLayer
 62
  256
370
   -1
100
AcDbCircle
 10
-5.967809515187307
 20
-23.49999999999999
 40
5
100
AcDbArc
 50
337.0751835723054
 51
22.92481642769453
  0
LINE
  5
1F0
100
AcDbEntity
  8
11
  6
ByLayer
 62
  256
370
   -1
100
AcDbLine
 10
-11.5341609313918
 20
5.064951899116769
 11
-0.276969072440723
 21
-21.5523854741862
  0
LINE
  5
1F1
100
AcDbEntity
  8
11
  6
ByLayer
 62
  256
370
   -1
100
AcDbLine
 10
-11.5341609313918
 20
-52.06495189911676
 11
-0.2769690724407177
 21
-25.44761452581377
  0
ARC
  5
1F2
100
AcDbEntity
  8
11
  6
ByLayer
 62
  256
370
   -1
100
AcDbCircle
 10
-4.882052965144429
 20
-23.49999999999999
 40
5
100
AcDbArc
 50
337.0751835723054
 51
22.92481642769463
  0
ARC
  5
1F3
100
AcDbEntity
  8
11
  6
ByLayer
 62
  256
370
   -1
100
AcDbCircle
 10
13.70378359696524
 20
-34.74999999999999
 40
5
100
AcDbArc
 50
90.00000000000001
 51
157.0751835723055
  0
ARC
  5
1F4
100
AcDbEntity
  8
11
  6
ByLayer
 62
  256
370
   -1
100
AcDbCircle
 10
13.04095409259457
 20
-33.74999999999999
 40
5
100
AcDbArc
 50
90.00000000000001
 51
157.0751835723056
  0
ARC
  5
1F5
100
AcDbEntity
  8
11
  6
ByLayer
 62
  256
370
   -1
100
AcDbCircle
 10
103.791193390382
 20
-34.74999999999997
 40
5
100
AcDbArc
 50
22.93241469032488
 51
90.00000000000001
  0
LINE
  5
1F6
100
AcDbEntity
  8
11
  6
ByLayer
 62
  256
370
   -1
100
AcDbLine
 10
13.04095409259456
 20
-28.74999999999999
 11
104.4539274599298
 21
-28.74999999999997
  0
ARC
  5
1F7
100
AcDbEntity
  8
11
  6
ByLayer
 62
  256
370
   -1
100
AcDbCircle
 10
104.4539274599298
 20
-33.74999999999997
 40
5
100
AcDbArc
 50
22.93241469032488
 51
89.99999999999986
  0
LINE
  5
1F8
100
AcDbEntity
  8
11
  6
ByLayer
 62
  256
370
   -1
100
AcDbLine
 10
13.70378359696524
 20
-29.75
 11
47.5
 21
-29.74999999999998
  0
ARC
  5
1F9
100
AcDbEntity
  8
11
  6
ByLayer
 62
  256
370
   -1
100
AcDbCircle
 10
47.5
 20
-34.74999999999999
 40
5
100
AcDbArc
 50
1.4e-14
 51
90.00000000000001
  0
ARC
  5
1FA
100
AcDbEntity
  8
11
  6
ByLayer
 62
  256
370
   -1
100
AcDbCircle
 10
58.5
 20
-34.74999999999998
 40
5
100
AcDbArc
 50
90.00000000000001
 51
180
  0
LINE
  5
1FB
100
AcDbEntity
  8
11
  6
ByLayer
 62
  256
370
   -1
100
AcDbLine
 10
70
 20
-29.74999999999998
 11
103.7911933903819
 21
-29.74999999999997
  0
ARC
  5
1FC
100
AcDbEntity
  8
11
  6
ByLayer
 62
  256
370
   -1
100
AcDbCircle
 10
70
 20
-34.74999999999998
 40
5
100
AcDbArc
 50
90.00000000000001
 51
180
  0
LINE
  5
1FD
100
AcDbEntity
  8
11
  6
ByLayer
 62
  256
370
   -1
100
AcDbLine
 10
58.5
 20
-29.74999999999998
 11
59
 21
-29.74999999999998
  0
ARC
  5
1FE
100
AcDbEntity
  8
11
  6
ByLayer
 62
  256
370
   -1
100
AcDbCircle
 10
59
 20
-34.74999999999998
 40
5
100
AcDbArc
 50
6.490000000000001e-14
 51
90.00000000000001
  0
LINE
  5
1FF
100
AcDbEntity
  8
11
  6
ByLayer
 62
  256
370
   -1
100
AcDbLine
 10
118.3985952020803
 20
-56.44386636837275
 11
108.3960189602757
 21
-32.80177478949356
  0
ARC
  5
200
100
AcDbEntity
  8
11
  6
ByLayer
 62
  256
370
   -1
100
AcDbCircle
 10
113.7937696321866
 20
-58.39209157887916
 40
5
100
AcDbArc
 50
350.728187186353
 51
22.93241469032488
  0
ARC
  5
201
100
AcDbEntity
  8
11
  6
ByLayer
 62
  256
370
   -1
100
AcDbCircle
 10
120.2088477787431
 20
-59.43936058614142
 40
1.5
100
AcDbArc
 50
170.7281871863531
 51
55.13664219429713
  0
LINE
  5
202
100
AcDbEntity
  8
11
  6
ByLayer
 62
  256
370
   -1
100
AcDbLine
 10
119.319560316059
 20
-56.05422132627146
 11
109.0587530298235
 21
-31.80177478949357
  0
ARC
  5
203
100
AcDbEntity
  8
11
  6
ByLayer
 62
  256
370
   -1
100
AcDbCircle
 10
123.9243858859528
 20
-54.10599611576505
 40
5
100
AcDbArc
 50
202.9324146903248
 51
235.1366421942969
  0
ARC
  5
204
100
AcDbEntity
  8
11
  6
ByLayer
 62
  256
370
   -1
100
AcDbCircle
 10
-6.424385885952788
 20
-54.10599611576508
 40
5
100
AcDbArc
 50
304.8633578057031
 51
338.3419641213954
  0
LINE
  5
205
100
AcDbEntity
  8
11
  6
ByLayer
 62
  256
370
   -1
100
AcDbLine
 10
-1.777370239465043
 20
-55.95132686695797
 11
8.43587019989085
 21
-31.80238547418622
  0
ARC
  5
206
100
AcDbEntity
  8
11
  6
ByLayer
 62
  256
370
   -1
100
AcDbCircle
 10
-2.708847778743149
 20
-59.43936058614142
 40
1.5
100
AcDbArc
 50
124.8633578057029
 51
9.292021928813131
  0
LINE
  5
207
100
AcDbEntity
  8
11
  6
ByLayer
 62
  256
370
   -1
100
AcDbLine
 10
-0.8992233120418192
 20
-56.44221442012848
 11
9.098699704261534
 21
-32.80238547418621
  0
ARC
  5
208
100
AcDbEntity
  8
11
  6
ByLayer
 62
  256
370
   -1
100
AcDbCircle
 10
3.705860580661884
 20
-58.38982894594226
 40
5
100
AcDbArc
 50
157.0751835723055
 51
189.2920219288131
  0
LINE
  5
209
100
AcDbEntity
  8
11
  6
ByLayer
 62
  256
370
   -1
100
AcDbLine
 10
64
 20
-54.93589838486224
 11
64
 21
-34.74999999999997
  0
ARC
  5
20A
100
AcDbEntity
  8
11
  6
ByLayer
 62
  256
370
   -1
100
AcDbCircle
 10
59
 20
-54.93589838486224
 40
5
100
AcDbArc
 50
327.795772496028
 51
0
  0
ARC
  5
20B
100
AcDbEntity
  8
11
  6
ByLayer
 62
  256
370
   -1
100
AcDbCircle
 10
64.5
 20
-58.39999999999999
 40
1.5
100
AcDbArc
 50
147.795772496028
 51
32.20422750397196
  0
LINE
  5
20C
100
AcDbEntity
  8
11
  6
ByLayer
 62
  256
370
   -1
100
AcDbLine
 10
65
 20
-54.93589838486224
 11
65
 21
-34.74999999999997
  0
ARC
  5
20D
100
AcDbEntity
  8
11
  6
ByLayer
 62
  256
370
   -1
100
AcDbCircle
 10
70
 20
-54.93589838486224
 40
5
100
AcDbArc
 50
180
 51
212.204227503972
  0
LINE
  5
20E
100
AcDbEntity
  8
11
  6
ByLayer
 62
  256
370
   -1
100
AcDbLine
 10
53.5
 20
-54.93589838486223
 11
53.5
 21
-34.74999999999997
  0
ARC
  5
20F
100
AcDbEntity
  8
11
  6
ByLayer
 62
  256
370
   -1
100
AcDbCircle
 10
58.5
 20
-54.93589838486224
 40
5
100
AcDbArc
 50
180
 51
212.204227503972
  0
ARC
  5
210
100
AcDbEntity
  8
11
  6
ByLayer
 62
  256
370
   -1
100
AcDbCircle
 10
53
 20
-58.40000000000001
 40
1.5
100
AcDbArc
 50
147.795772496028
 51
32.20422750397211
  0
LINE
  5
211
100
AcDbEntity
  8
11
  6
ByLayer
 62
  256
370
   -1
100
AcDbLine
 10
52.5
 20
-54.93589838486224
 11
52.5
 21
-34.74999999999999
  0
ARC
  5
212
100
AcDbEntity
  8
11
  6
ByLayer
 62
  256
370
   -1
100
AcDbCircle
 10
47.5
 20
-54.93589838486224
 40
5
100
AcDbArc
 50
327.795772496028
 51
0
  0
ARC
  5
213
100
AcDbEntity
  8
11
  6
ByLayer
 62
  256
370
   -1
100
AcDbCircle
 10
130.8019454392931
 20
7.95925308804798
 40
1.5
100
AcDbArc
 50
304.8583452157978
 51
189.287009338908
  0
ARC
  5
214
100
AcDbEntity
  8
11
  6
ByLayer
 62
  256
370
   -1
100
AcDbCircle
 10
124.387145284904
 20
6.910282650309597
 40
5
100
AcDbArc
 50
338.3419641213958
 51
9.287009338907819
  0
ARC
  5
215
100
AcDbEntity
  8
11
  6
ByLayer
 62
  256
370
   -1
100
AcDbCircle
 10
134.5170169365048
 20
2.625563579780254
 40
5
100
AcDbArc
 50
124.8583452157979
 51
157.0751835723054
  0
ARC
  5
216
100
AcDbEntity
  8
11
  6
ByLayer
 62
  256
370
   -1
100
AcDbCircle
 10
130.8019454392931
 20
-54.95925308804799
 40
1.5
100
AcDbArc
 50
170.7129906610919
 51
55.14165478420214
  0
ARC
  5
217
100
AcDbEntity
  8
11
  6
ByLayer
 62
  256
370
   -1
100
AcDbCircle
 10
124.387145284904
 20
-53.9102826503096
 40
5
100
AcDbArc
 50
350.7129906610922
 51
21.65803587860411
  0
ARC
  5
218
100
AcDbEntity
  8
11
  6
ByLayer
 62
  256
370
   -1
100
AcDbCircle
 10
134.5170169365048
 20
-49.62556357978022
 40
5
100
AcDbArc
 50
202.9248164276946
 51
235.1416547842022
  0
LINE
  5
219
100
AcDbEntity
  8
11
  6
ByLayer
 62
  256
370
   -1
100
AcDbLine
 10
129.9119330438011
 20
4.573178105593998
 11
118.8627256224836
 21
-21.55238547418625
  0
LINE
  5
21A
100
AcDbEntity
  8
11
  6
ByLayer
 62
  256
370
   -1
100
AcDbLine
 10
129.9119330438011
 20
-51.57317810559404
 11
118.8627256224836
 21
-25.44761452581377
  0
ARC
  5
21B
100
AcDbEntity
  8
11
  6
ByLayer
 62
  256
370
   -1
100
AcDbCircle
 10
123.4678095151873
 20
-23.5
 40
5
100
AcDbArc
 50
157.0751835723054
 51
202.9248164276945
  0
LINE
  5
21C
100
AcDbEntity
  8
11
  6
ByLayer
 62
  256
370
   -1
100
AcDbLine
 10
129.0341609313918
 20
5.064951899116751
 11
117.7769690724407
 21
-21.55238547418621
  0
LINE
  5
21D
100
AcDbEntity
  8
11
  6
ByLayer
 62
  256
370
   -1
100
AcDbLine
 10
129.0341609313918
 20
-52.06495189911676
 11
117.7769690724407
 21
-25.44761452581378
  0
ARC
  5
21E
100
AcDbEntity
  8
11
  6
ByLayer
 62
  256
370
   -1
100
AcDbCircle
 10
122.3820529651444
 20
-23.50000000000001
 40
5
100
AcDbArc
 50
157.0751835723053
 51
202.9248164276945
  0
ARC
  5
21F
100
AcDbEntity
  8
0
  6
ByLayer
 62
  256
370
   -1
100
AcDbCircle
 10
4.111235312102999
 20
31.75304832720494
 40
10
100
AcDbArc
 50
250.2173154722351
 51
270
  0
ARC
  5
220
100
AcDbEntity
  8
0
  6
ByLayer
 62
  256
370
   -1
100
AcDbCircle
 10
-26.50304832720494
 20
1.138764687897018
 40
10
100
AcDbArc
 50
2.5e-15
 51
19.78268452776495
  0
LINE
  5
221
100
AcDbEntity
  8
0
  6
ByLayer
 62
  256
370
   -1
100
AcDbLine
 10
-11.46353150727344
 20
26.72780956230941
 11
0.7266997189036815
 21
22.34321736069088
  0
ARC
  5
222
100
AcDbEntity
  8
0
  6
ByLayer
 62
  256
370
   -1
100
AcDbCircle
 10
-12.81734574455316
 20
22.96387717570379
 40
4
100
AcDbArc
 50
70.21731547223506
 51
135
  0
LINE
  5
223
100
AcDbEntity
  8
0
  6
ByLayer
 62
  256
370
   -1
100
AcDbLine
 10
-15.64577286929935
 20
25.79230430044998
 11
-20.54230430044998
 21
20.89577286929936
  0
LINE
  5
224
100
AcDbEntity
  8
0
  6
ByLayer
 62
  256
370
   -1
100
AcDbLine
 10
-21.47780956230942
 20
16.71353150727344
 11
-17.09321736069089
 21
4.523300281096338
  0
ARC
  5
225
100
AcDbEntity
  8
0
  6
ByLayer
 62
  256
370
   -1
100
AcDbCircle
 10
-17.71387717570379
 20
18.06734574455317
 40
4
100
AcDbArc
 50
135
 51
199.7826845277649
  0
LINE
  5
226
100
AcDbEntity
  8
1
  6
ByLayer
 62
  256
370
   -1
100
AcDbLine
 10
-13.20934184432727
 20
26.94462321856584
 11
-11.0229707730092
 21
24.75825214724776
  0
ARC
  5
227
100
AcDbEntity
  8
1
  6
ByLayer
 62
  256
370
   -1
100
AcDbCircle
 10
-12.81734574455316
 20
22.96387717570379
 40
4
100
AcDbArc
 50
95.62395704364654
 51
135
  0
LINE
  5
228
100
AcDbEntity
  8
1
  6
ByLayer
 62
  256
370
   -1
100
AcDbLine
 10
-15.64577286929935
 20
25.79230430044998
 11
-20.54230430044998
 21
20.89577286929936
  0
LINE
  5
229
100
AcDbEntity
  8
1
  6
ByLayer
 62
  256
370
   -1
100
AcDbLine
 10
-19.50825214724777
 20
16.2729707730092
 11
-21.69462321856584
 21
18.45934184432727
  0
ARC
  5
22A
100
AcDbEntity
  8
1
  6
ByLayer
 62
  256
370
   -1
100
AcDbCircle
 10
-17.71387717570379
 20
18.06734574455317
 40
4
100
AcDbArc
 50
135
 51
174.3760429563535
  0
CIRCLE
  5
22B
100
AcDbEntity
  8
1
  6
ByLayer
 62
  256
370
   -1
100
AcDbCircle
 10
-16.07878425849305
 20
-68.32878425849297
 40
0.8
  0
LINE
  5
22C
100
AcDbEntity
  8
1
  6
ByLayer
 62
  256
370
   -1
100
AcDbLine
 10
-11.02297077300924
 20
-71.75825214724773
 11
-19.50825214724777
 21
-63.27297077300919
  0
LINE
  5
22D
100
AcDbEntity
  8
1
  6
ByLayer
 62
  256
370
   -1
100
AcDbLine
 10
-13.20934184432727
 20
-73.94462321856585
 11
-11.02297077300924
 21
-71.75825214724773
  0
ARC
  5
22E
100
AcDbEntity
  8
1
  6
ByLayer
 62
  256
370
   -1
100
AcDbCircle
 10
-12.8173457445532
 20
-69.96387717570377
 40
4
100
AcDbArc
 50
225
 51
264.3760429563534
  0
LINE
  5
22F
100
AcDbEntity
  8
1
  6
ByLayer
 62
  256
370
   -1
100
AcDbLine
 10
-15.64577286929934
 20
-72.79230430044998
 11
-20.54230430044998
 21
-67.89577286929935
  0
LINE
  5
230
100
AcDbEntity
  8
1
  6
ByLayer
 62
  256
370
   -1
100
AcDbLine
 10
-19.50825214724777
 20
-63.27297077300919
 11
-21.69462321856582
 21
-65.45934184432728
  0
ARC
  5
231
100
AcDbEntity
  8
1
  6
ByLayer
 62
  256
370
   -1
100
AcDbCircle
 10
-17.71387717570381
 20
-65.06734574455314
 40
4
100
AcDbArc
 50
185.6239570436464
 51
225
  0
CIRCLE
  5
232
100
AcDbEntity
  8
1
  6
ByLayer
 62
  256
370
   -1
100
AcDbCircle
 10
133.578784258493
 20
21.32878425849297
 40
0.8
  0
LINE
  5
233
100
AcDbEntity
  8
1
  6
ByLayer
 62
  256
370
   -1
100
AcDbLine
 10
128.5229707730092
 20
24.75825214724776
 11
137.0082521472478
 21
16.27297077300921
  0
LINE
  5
234
100
AcDbEntity
  8
1
  6
ByLayer
 62
  256
370
   -1
100
AcDbLine
 10
130.7093418443273
 20
26.94462321856583
 11
128.5229707730092
 21
24.75825214724776
  0
ARC
  5
235
100
AcDbEntity
  8
1
  6
ByLayer
 62
  256
370
   -1
100
AcDbCircle
 10
130.3173457445532
 20
22.96387717570377
 40
4
100
AcDbArc
 50
45.00000000000003
 51
84.37604295635346
  0
LINE
  5
236
100
AcDbEntity
  8
1
  6
ByLayer
 62
  256
370
   -1
100
AcDbLine
 10
133.1457728692993
 20
25.79230430044997
 11
138.04230430045
 21
20.89577286929935
  0
LINE
  5
237
100
AcDbEntity
  8
1
  6
ByLayer
 62
  256
370
   -1
100
AcDbLine
 10
137.0082521472478
 20
16.27297077300921
 11
139.1946232185659
 21
18.45934184432725
  0
ARC
  5
238
100
AcDbEntity
  8
1
  6
ByLayer
 62
  256
370
   -1
100
AcDbCircle
 10
135.2138771757038
 20
18.06734574455313
 40
4
100
AcDbArc
 50
5.623957043646462
 51
44.99999999999999
  0
CIRCLE
  5
239
100
AcDbEntity
  8
1
  6
ByLayer
 62
  256
370
   -1
100
AcDbCircle
 10
133.578784258493
 20
-68.32878425849299
 40
0.8
  0
LINE
  5
23A
100
AcDbEntity
  8
1
  6
ByLayer
 62
  256
370
   -1
100
AcDbLine
 10
128.5229707730092
 20
-71.75825214724775
 11
137.0082521472478
 21
-63.27297077300916
  0
LINE
  5
23B
100
AcDbEntity
  8
1
  6
ByLayer
 62
  256
370
   -1
100
AcDbLine
 10
130.7093418443273
 20
-73.94462321856585
 11
128.5229707730092
 21
-71.75825214724775
  0
ARC
  5
23C
100
AcDbEntity
  8
1
  6
ByLayer
 62
  256
370
   -1
100
AcDbCircle
 10
130.3173457445532
 20
-69.96387717570379
 40
4
100
AcDbArc
 50
275.6239570436466
 51
315
  0
LINE
  5
23D
100
AcDbEntity
  8
1
  6
ByLayer
 62
  256
370
   -1
100
AcDbLine
 10
133.1457728692993
 20
-72.79230430044998
 11
138.04230430045
 21
-67.89577286929935
  0
LINE
  5
23E
100
AcDbEntity
  8
1
  6
ByLayer
 62
  256
370
   -1
100
AcDbLine
 10
137.0082521472478
 20
-63.27297077300916
 11
139.1946232185658
 21
-65.45934184432734
  0
ARC
  5
23F
100
AcDbEntity
  8
1
  6
ByLayer
 62
  256
370
   -1
100
AcDbCircle
 10
135.2138771757038
 20
-65.06734574455317
 40
4
100
AcDbArc
 50
315
 51
354.3760429563536
  0
LINE
  5
240
100
AcDbEntity
  8
0
  6
ByLayer
 62
  256
370
   -1
100
AcDbLine
 10
-11.46353150727343
 20
-73.7278095623094
 11
0.7266997189036779
 21
-69.34321736069086
  0
ARC
  5
241
100
AcDbEntity
  8
0
  6
ByLayer
 62
  256
370
   -1
100
AcDbCircle
 10
-12.81734574455317
 20
-69.96387717570377
 40
4
100
AcDbArc
 50
225
 51
289.7826845277649
  0
LINE
  5
242
100
AcDbEntity
  8
0
  6
ByLayer
 62
  256
370
   -1
100
AcDbLine
 10
-15.64577286929935
 20
-72.79230430044998
 11
-20.54230430044999
 21
-67.89577286929935
  0
LINE
  5
243
100
AcDbEntity
  8
0
  6
ByLayer
 62
  256
370
   -1
100
AcDbLine
 10
-21.47780956230942
 20
-63.71353150727343
 11
-17.09321736069089
 21
-51.52330028109633
  0
ARC
  5
244
100
AcDbEntity
  8
0
  6
ByLayer
 62
  256
370
   -1
100
AcDbCircle
 10
-17.71387717570378
 20
-65.06734574455317
 40
4
100
AcDbArc
 50
160.2173154722351
 51
225
  0
ARC
  5
245
100
AcDbEntity
  8
0
  6
ByLayer
 62
  256
370
   -1
100
AcDbCircle
 10
-26.50304832720495
 20
-48.13876468789701
 40
10
100
AcDbArc
 50
340.217315472235
 51
0
  0
LINE
  5
246
100
AcDbEntity
  8
0
  6
ByLayer
 62
  256
370
   -1
100
AcDbLine
 10
-16.50304832720494
 20
1.138764687897019
 11
-16.50304832720494
 21
-48.13876468789701
  0
ARC
  5
247
100
AcDbEntity
  8
0
  6
ByLayer
 62
  256
370
   -1
100
AcDbCircle
 10
4.111235312102998
 20
-78.75304832720494
 40
10
100
AcDbArc
 50
90
 51
109.7826845277649
  0
LINE
  5
248
100
AcDbEntity
  8
0
  6
ByLayer
 62
  256
370
   -1
100
AcDbLine
 10
128.9635315072734
 20
26.72780956230941
 11
116.7733002810963
 21
22.34321736069088
  0
ARC
  5
249
100
AcDbEntity
  8
0
  6
ByLayer
 62
  256
370
   -1
100
AcDbCircle
 10
130.3173457445532
 20
22.96387717570378
 40
4
100
AcDbArc
 50
45.00000000000003
 51
109.782684527765
  0
LINE
  5
24A
100
AcDbEntity
  8
0
  6
ByLayer
 62
  256
370
   -1
100
AcDbLine
 10
133.1457728692993
 20
25.79230430044998
 11
138.04230430045
 21
20.89577286929929
  0
LINE
  5
24B
100
AcDbEntity
  8
0
  6
ByLayer
 62
  256
370
   -1
100
AcDbLine
 10
138.9778095623094
 20
16.71353150727341
 11
134.5932173606909
 21
4.523300281096349
  0
ARC
  5
24C
100
AcDbEntity
  8
0
  6
ByLayer
 62
  256
370
   -1
100
AcDbCircle
 10
135.2138771757038
 20
18.06734574455318
 40
4
100
AcDbArc
 50
340.217315472235
 51
44.99999999999999
  0
LINE
  5
24D
100
AcDbEntity
  8
0
  6
ByLayer
 62
  256
370
   -1
100
AcDbLine
 10
128.9635315072734
 20
-73.7278095623094
 11
116.7733002810963
 21
-69.34321736069086
  0
ARC
  5
24E
100
AcDbEntity
  8
0
  6
ByLayer
 62
  256
370
   -1
100
AcDbCircle
 10
130.3173457445532
 20
-69.96387717570374
 40
4
100
AcDbArc
 50
250.2173154722351
 51
315
  0
LINE
  5
24F
100
AcDbEntity
  8
0
  6
ByLayer
 62
  256
370
   -1
100
AcDbLine
 10
133.1457728692993
 20
-72.79230430044998
 11
138.04230430045
 21
-67.89577286929938
  0
LINE
  5
250
100
AcDbEntity
  8
0
  6
ByLayer
 62
  256
370
   -1
100
AcDbLine
 10
138.9778095623094
 20
-63.71353150727345
 11
134.5932173606909
 21
-51.52330028109638
  0
ARC
  5
251
100
AcDbEntity
  8
0
  6
ByLayer
 62
  256
370
   -1
100
AcDbCircle
 10
135.2138771757038
 20
-65.06734574455314
 40
4
100
AcDbArc
 50
315.0000000000001
 51
19.78268452776491
  0
ARC
  5
252
100
AcDbEntity
  8
0
  6
ByLayer
 62
  256
370
   -1
100
AcDbCircle
 10
113.388764687897
 20
31.75304832720491
 40
10
100
AcDbArc
 50
270
 51
289.7826845277649
  0
ARC
  5
253
100
AcDbEntity
  8
0
  6
ByLayer
 62
  256
370
   -1
100
AcDbCircle
 10
144.0030483272049
 20
1.138764687897015
 40
10
100
AcDbArc
 50
160.217315472235
 51
180
  0
ARC
  5
254
100
AcDbEntity
  8
0
  6
ByLayer
 62
  256
370
   -1
100
AcDbCircle
 10
113.388764687897
 20
-78.75304832720494
 40
10
100
AcDbArc
 50
70.21731547223506
 51
90
  0
LINE
  5
255
100
AcDbEntity
  8
0
  6
ByLayer
 62
  256
370
   -1
100
AcDbLine
 10
134.0030483272049
 20
1.138764687897015
 11
134.0030483272049
 21
-48.138764687897
  0
ARC
  5
256
100
AcDbEntity
  8
0
  6
ByLayer
 62
  256
370
   -1
100
AcDbCircle
 10
144.003048327205
 20
-48.138764687897
 40
10
100
AcDbArc
 50
180
 51
199.7826845277649
  0
LINE
  5
257
100
AcDbEntity
  8
0
  6
ByLayer
 62
  256
370
   -1
100
AcDbLine
 10
4.111235312102999
 20
21.75304832720494
 11
44.59324067862414
 21
21.75304832720494
  0
ARC
  5
258
100
AcDbEntity
  8
0
  6
ByLayer
 62
  256
370
   -1
100
AcDbCircle
 10
44.59324067862415
 20
25.75304832720494
 40
4
100
AcDbArc
 50
269.9999999999999
 51
314.9841177551615
  0
LINE
  5
259
100
AcDbEntity
  8
0
  6
ByLayer
 62
  256
370
   -1
100
AcDbLine
 10
113.388764687897
 20
21.75304832720494
 11
72.90675932137584
 21
21.75304832720494
  0
ARC
  5
25A
100
AcDbEntity
  8
0
  6
ByLayer
 62
  256
370
   -1
100
AcDbCircle
 10
72.90675932137584
 20
25.75304832720494
 40
4
100
AcDbArc
 50
225.0158822448385
 51
270
  0
LINE
  5
25B
100
AcDbEntity
  8
0
  6
ByLayer
 62
  256
370
   -1
100
AcDbLine
 10
65.92143821054917
 20
27.07921104889922
 11
70.0791163381146
 21
22.92383727830572
  0
ARC
  5
25C
100
AcDbEntity
  8
0
  6
ByLayer
 62
  256
370
   -1
100
AcDbCircle
 10
63.09379522728792
 20
24.25
 40
4
100
AcDbArc
 50
45.01588224483845
 51
90
  0
LINE
  5
25D
100
AcDbEntity
  8
0
  6
ByLayer
 62
  256
370
   -1
100
AcDbLine
 10
63.09379522728792
 20
28.25
 11
54.40620477271208
 21
28.25
  0
LINE
  5
25E
100
AcDbEntity
  8
0
  6
ByLayer
 62
  256
370
   -1
100
AcDbLine
 10
51.57856178945084
 20
27.07921104889922
 11
47.4208836618854
 21
22.92383727830572
  0
ARC
  5
25F
100
AcDbEntity
  8
0
  6
ByLayer
 62
  256
370
   -1
100
AcDbCircle
 10
54.40620477271208
 20
24.25
 40
4
100
AcDbArc
 50
90
 51
134.9841177551615
  0
LINE
  5
260
100
AcDbEntity
  8
0
  6
ByLayer
 62
  256
370
   -1
100
AcDbLine
 10
113.388764687897
 20
-68.75304832720494
 11
72.90675932137584
 21
-68.75304832720494
  0
ARC
  5
261
100
AcDbEntity
  8
0
  6
ByLayer
 62
  256
370
   -1
100
AcDbCircle
 10
72.90675932137584
 20
-72.75304832720494
 40
4
100
AcDbArc
 50
90
 51
134.9841177551614
  0
LINE
  5
262
100
AcDbEntity
  8
0
  6
ByLayer
 62
  256
370
   -1
100
AcDbLine
 10
70.0791163381146
 20
-69.92383727830571
 11
65.92143821054917
 21
-74.07921104889923
  0
ARC
  5
263
100
AcDbEntity
  8
0
  6
ByLayer
 62
  256
370
   -1
100
AcDbCircle
 10
63.09379522728792
 20
-71.25
 40
4
100
AcDbArc
 50
270
 51
314.9841177551615
  0
LINE
  5
264
100
AcDbEntity
  8
0
  6
ByLayer
 62
  256
370
   -1
100
AcDbLine
 10
54.40620477271209
 20
-75.25
 11
63.09379522728792
 21
-75.25
  0
ARC
  5
265
100
AcDbEntity
  8
0
  6
ByLayer
 62
  256
370
   -1
100
AcDbCircle
 10
54.40620477271209
 20
-71.25
 40
4
100
AcDbArc
 50
225.0158822448385
 51
270
  0
LINE
  5
266
100
AcDbEntity
  8
0
  6
ByLayer
 62
  256
370
   -1
100
AcDbLine
 10
4.111235312102998
 20
-68.75304832720494
 11
44.59324067862414
 21
-68.75304832720494
  0
LINE
  5
267
100
AcDbEntity
  8
0
  6
ByLayer
 62
  256
370
   -1
100
AcDbLine
 10
47.42088366188539
 20
-69.92383727830571
 11
51.57856178945084
 21
-74.07921104889923
  0
ARC
  5
268
100
AcDbEntity
  8
0
  6
ByLayer
 62
  256
370
   -1
100
AcDbCircle
 10
44.59324067862414
 20
-72.75304832720494
 40
4
100
AcDbArc
 50
45.01588224483849
 51
90
  0
LINE
  5
269
100
AcDbEntity
  8
1
  6
ByLayer
 62
  256
370
   -1
100
AcDbLine
 10
52.75
 20
-71.25
 11
52.75
 21
-74.89101438487212
  0
LINE
  5
26A
100
AcDbEntity
  8
1
  6
ByLayer
 62
  256
370
   -1
100
AcDbLine
 10
64.75
 20
-71.25
 11
64.75
 21
-74.89101438487212
  0
ARC
  5
26B
100
AcDbEntity
  8
1
  6
ByLayer
 62
  256
370
   -1
100
AcDbCircle
 10
63.09379522728792
 20
-71.25
 40
4
100
AcDbArc
 50
270
 51
294.4595798007368
  0
ARC
  5
26C
100
AcDbEntity
  8
1
  6
ByLayer
 62
  256
370
   -1
100
AcDbCircle
 10
54.40620477271209
 20
-71.25
 40
4
100
AcDbArc
 50
245.5404201992631
 51
270
  0
LINE
  5
26D
100
AcDbEntity
  8
1
  6
ByLayer
 62
  256
370
   -1
100
AcDbLine
 10
54.40620477271209
 20
-75.25
 11
63.09379522728792
 21
-75.25
  0
LINE
  5
26E
100
AcDbEntity
  8
1
  6
ByLayer
 62
  256
370
   -1
100
AcDbLine
 10
63.09379522728792
 20
28.25
 11
54.40620477271208
 21
28.25
  0
LINE
  5
26F
100
AcDbEntity
  8
1
  6
ByLayer
 62
  256
370
   -1
100
AcDbLine
 10
52.75
 20
27.89101438487212
 11
52.75
 21
24.25
  0
ARC
  5
270
100
AcDbEntity
  8
1
  6
ByLayer
 62
  256
370
   -1
100
AcDbCircle
 10
54.40620477271208
 20
24.25
 40
4
100
AcDbArc
 50
90
 51
114.4595798007369
  0
LINE
  5
271
100
AcDbEntity
  8
1
  6
ByLayer
 62
  256
370
   -1
100
AcDbLine
 10
64.75
 20
27.89101438487212
 11
64.75
 21
24.25
  0
ARC
  5
272
100
AcDbEntity
  8
1
  6
ByLayer
 62
  256
370
   -1
100
AcDbCircle
 10
63.09379522728792
 20
24.25
 40
4
100
AcDbArc
 50
65.54042019926314
 51
90
  0
LINE
  5
273
100
AcDbEntity
  8
21
  6
ByLayer
 62
  256
370
   -1
100
AcDbLine
 10
75.25
 20
-18.5
 11
114.3305826175841
 21
-18.5
  0
LINE
  5
274
100
AcDbEntity
  8
21
  6
ByLayer
 62
  256
370
   -1
100
AcDbLine
 10
75.25
 20
-28.5
 11
114.3305826175841
 21
-28.5
  0
ARC
  5
275
100
AcDbEntity
  8
21
  6
ByLayer
 62
  256
370
   -1
100
AcDbCircle
 10
131.0631203017635
 20
-23.50000000000002
 40
10
100
AcDbArc
 50
157.0675853096751
 51
202.9324146903249
  0
ARC
  5
276
100
AcDbEntity
  8
21
  6
ByLayer
 62
  256
370
   -1
100
AcDbCircle
 10
114.3305826175841
 20
-13.5
 40
5
100
AcDbArc
 50
270
 51
337.0675853096752
  0
ARC
  5
277
100
AcDbEntity
  8
21
  6
ByLayer
 62
  256
370
   -1
100
AcDbCircle
 10
114.3305826175841
 20
-33.5
 40
5
100
AcDbArc
 50
22.93241469032485
 51
90
  0
ARC
  5
278
100
AcDbEntity
  8
21
  6
ByLayer
 62
  256
370
   -1
100
AcDbCircle
 10
58.51746231582062
 20
-23.50000000000003
 40
10
100
AcDbArc
 50
337.0675853096751
 51
22.93241469032485
  0
ARC
  5
279
100
AcDbEntity
  8
21
  6
ByLayer
 62
  256
370
   -1
100
AcDbCircle
 10
75.25
 20
-13.5
 40
5
100
AcDbArc
 50
202.9324146903249
 51
270
  0
ARC
  5
27A
100
AcDbEntity
  8
21
  6
ByLayer
 62
  256
370
   -1
100
AcDbCircle
 10
75.25
 20
-33.5
 40
5
100
AcDbArc
 50
90
 51
157.0675853096752
  0
LINE
  5
27B
100
AcDbEntity
  8
21
  6
ByLayer
 62
  256
370
   -1
100
AcDbLine
 10
67.58392686474799
 20
-8.212659738549217
 11
70.64517443010624
 21
-15.44822521050641
  0
LINE
  5
27C
100
AcDbEntity
  8
21
  6
ByLayer
 62
  256
370
   -1
100
AcDbLine
 10
63.6177593839259
 20
-9.890679319952493
 11
67.72711345560811
 21
-19.60354957898721
  0
ARC
  5
27D
100
AcDbEntity
  8
21
  6
ByLayer
 62
  256
370
   -1
100
AcDbCircle
 10
65.60084312433695
 20
-9.051669529250855
 40
2.153266948238388
100
AcDbArc
 50
22.93241469032471
 51
202.9324146903247
  0
LINE
  5
27E
100
AcDbEntity
  8
21
  6
ByLayer
 62
  256
370
   -1
100
AcDbLine
 10
67.72711345560811
 20
-27.39645042101284
 11
63.61775938392589
 21
-37.10932068004752
  0
LINE
  5
27F
100
AcDbEntity
  8
21
  6
ByLayer
 62
  256
370
   -1
100
AcDbLine
 10
70.64517443010624
 20
-31.5517747894936
 11
67.58392686474798
 21
-38.78734026145081
  0
ARC
  5
280
100
AcDbEntity
  8
21
  6
ByLayer
 62
  256
370
   -1
100
AcDbCircle
 10
65.60084312433695
 20
-37.94833047074917
 40
2.153266948238388
100
AcDbArc
 50
157.067585309675
 51
337.0675853096751
  0
LINE
  5
281
100
AcDbEntity
  8
21
  6
ByLayer
 62
  256
370
   -1
100
AcDbLine
 10
120.194449508673
 20
-12.47235484494166
 11
118.9354081874778
 21
-15.4482252105064
  0
LINE
  5
282
100
AcDbEntity
  8
21
  6
ByLayer
 62
  256
370
   -1
100
AcDbLine
 10
124.1606169894951
 20
-14.15037442634495
 11
121.853469161976
 21
-19.60354957898721
  0
ARC
  5
283
100
AcDbEntity
  8
21
  6
ByLayer
 62
  256
370
   -1
100
AcDbCircle
 10
122.177533249084
 20
-13.3113646356433
 40
2.153266948238401
100
AcDbArc
 50
337.0675853096751
 51
157.0675853096752
  0
LINE
  5
284
100
AcDbEntity
  8
21
  6
ByLayer
 62
  256
370
   -1
100
AcDbLine
 10
118.9354081874778
 20
-31.5517747894936
 11
120.194449508673
 21
-34.52764515505839
  0
LINE
  5
285
100
AcDbEntity
  8
21
  6
ByLayer
 62
  256
370
   -1
100
AcDbLine
 10
121.853469161976
 20
-27.39645042101283
 11
124.1606169894951
 21
-32.8496255736551
  0
ARC
  5
286
100
AcDbEntity
  8
21
  6
ByLayer
 62
  256
370
   -1
100
AcDbCircle
 10
122.177533249084
 20
-33.68863536435676
 40
2.153266948238401
100
AcDbArc
 50
202.932414690325
 51
22.93241469032492
  0
LINE
  5
287
100
AcDbEntity
  8
21
  6
ByLayer
 62
  256
370
   -1
100
AcDbLine
 10
75.25
 20
-19.5
 11
114.3305826175841
 21
-19.5
  0
ARC
  5
288
100
AcDbEntity
  8
21
  6
ByLayer
 62
  256
370
   -1
100
AcDbCircle
 10
114.3305826175841
 20
-13.5
 40
6
100
AcDbArc
 50
270
 51
337.0675853096752
  0
LINE
  5
289
100
AcDbEntity
  8
21
  6
ByLayer
 62
  256
370
   -1
100
AcDbLine
 10
121.1154146226517
 20
-12.86199988704294
 11
119.8563733014566
 21
-15.83787025260768
  0
ARC
  5
28A
100
AcDbEntity
  8
21
  6
ByLayer
 62
  256
370
   -1
100
AcDbCircle
 10
122.177533249084
 20
-13.3113646356433
 40
1.153266948238401
100
AcDbArc
 50
337.0675853096751
 51
157.0675853096752
  0
LINE
  5
28B
100
AcDbEntity
  8
21
  6
ByLayer
 62
  256
370
   -1
100
AcDbLine
 10
123.2396518755163
 20
-13.76072938424367
 11
120.9325040479972
 21
-19.21390453688593
  0
ARC
  5
28C
100
AcDbEntity
  8
21
  6
ByLayer
 62
  256
370
   -1
100
AcDbCircle
 10
131.0631203017635
 20
-23.50000000000002
 40
11
100
AcDbArc
 50
157.0675853096751
 51
202.9324146903249
  0
LINE
  5
28D
100
AcDbEntity
  8
21
  6
ByLayer
 62
  256
370
   -1
100
AcDbLine
 10
120.9325040479972
 20
-27.78609546311411
 11
123.2396518755163
 21
-33.23927061575638
  0
ARC
  5
28E
100
AcDbEntity
  8
21
  6
ByLayer
 62
  256
370
   -1
100
AcDbCircle
 10
122.177533249084
 20
-33.68863536435676
 40
1.153266948238401
100
AcDbArc
 50
202.932414690325
 51
22.93241469032492
  0
LINE
  5
28F
100
AcDbEntity
  8
21
  6
ByLayer
 62
  256
370
   -1
100
AcDbLine
 10
119.8563733014566
 20
-31.16212974739232
 11
121.1154146226517
 21
-34.13800011295712
  0
ARC
  5
290
100
AcDbEntity
  8
21
  6
ByLayer
 62
  256
370
   -1
100
AcDbCircle
 10
114.3305826175841
 20
-33.5
 40
6
100
AcDbArc
 50
22.93241469032485
 51
90
  0
LINE
  5
291
100
AcDbEntity
  8
21
  6
ByLayer
 62
  256
370
   -1
100
AcDbLine
 10
75.25
 20
-27.5
 11
114.3305826175841
 21
-27.5
  0
ARC
  5
292
100
AcDbEntity
  8
21
  6
ByLayer
 62
  256
370
   -1
100
AcDbCircle
 10
75.25
 20
-33.5
 40
6
100
AcDbArc
 50
90
 51
157.0675853096752
  0
LINE
  5
293
100
AcDbEntity
  8
21
  6
ByLayer
 62
  256
370
   -1
100
AcDbLine
 10
69.72420931612749
 20
-31.16212974739231
 11
66.66296175076923
 21
-38.39769521934953
  0
ARC
  5
294
100
AcDbEntity
  8
21
  6
ByLayer
 62
  256
370
   -1
100
AcDbCircle
 10
65.60084312433695
 20
-37.94833047074917
 40
1.153266948238388
100
AcDbArc
 50
157.067585309675
 51
337.0675853096751
  0
LINE
  5
295
100
AcDbEntity
  8
21
  6
ByLayer
 62
  256
370
   -1
100
AcDbLine
 10
68.64807856958686
 20
-27.78609546311412
 11
64.53872449790464
 21
-37.4989657221488
  0
ARC
  5
296
100
AcDbEntity
  8
21
  6
ByLayer
 62
  256
370
   -1
100
AcDbCircle
 10
58.51746231582062
 20
-23.50000000000003
 40
11
100
AcDbArc
 50
337.0675853096751
 51
22.93241469032485
  0
LINE
  5
297
100
AcDbEntity
  8
21
  6
ByLayer
 62
  256
370
   -1
100
AcDbLine
 10
64.53872449790465
 20
-9.501034277851215
 11
68.64807856958686
 21
-19.21390453688593
  0
ARC
  5
298
100
AcDbEntity
  8
21
  6
ByLayer
 62
  256
370
   -1
100
AcDbCircle
 10
65.60084312433695
 20
-9.051669529250855
 40
1.153266948238388
100
AcDbArc
 50
22.93241469032471
 51
202.9324146903247
  0
LINE
  5
299
100
AcDbEntity
  8
21
  6
ByLayer
 62
  256
370
   -1
100
AcDbLine
 10
66.66296175076924
 20
-8.602304780650496
 11
69.72420931612749
 21
-15.83787025260769
  0
ARC
  5
29A
100
AcDbEntity
  8
21
  6
ByLayer
 62
  256
370
   -1
100
AcDbCircle
 10
75.25
 20
-13.5
 40
6
100
AcDbArc
 50
202.9324146903249
 51
270
  0
LINE
  5
29B
100
AcDbEntity
  8
20
  6
ByLayer
 62
  256
370
   -1
100
AcDbLine
 10
67.58392686474799
 20
-8.212659738549217
 11
70.64517443010624
 21
-15.44822521050641
  0
ARC
  5
29C
100
AcDbEntity
  8
20
  6
ByLayer
 62
  256
370
   -1
100
AcDbCircle
 10
65.60084312433695
 20
-9.051669529250855
 40
2.153266948238388
100
AcDbArc
 50
22.93241469032471
 51
202.9324146903247
  0
LINE
  5
29D
100
AcDbEntity
  8
20
  6
ByLayer
 62
  256
370
   -1
100
AcDbLine
 10
63.6177593839259
 20
-9.890679319952493
 11
67.72711345560811
 21
-19.60354957898721
  0
ARC
  5
29E
100
AcDbEntity
  8
20
  6
ByLayer
 62
  256
370
   -1
100
AcDbCircle
 10
58.51746231582062
 20
-23.50000000000003
 40
10
100
AcDbArc
 50
337.0675853096751
 51
22.93241469032485
  0
LINE
  5
29F
100
AcDbEntity
  8
20
  6
ByLayer
 62
  256
370
   -1
100
AcDbLine
 10
67.72711345560811
 20
-27.39645042101284
 11
63.61775938392589
 21
-37.10932068004752
  0
ARC
  5
2A0
100
AcDbEntity
  8
20
  6
ByLayer
 62
  256
370
   -1
100
AcDbCircle
 10
65.60084312433695
 20
-37.94833047074917
 40
2.153266948238388
100
AcDbArc
 50
157.067585309675
 51
337.0675853096751
  0
LINE
  5
2A1
100
AcDbEntity
  8
20
  6
ByLayer
 62
  256
370
   -1
100
AcDbLine
 10
70.64517443010624
 20
-31.5517747894936
 11
67.58392686474798
 21
-38.78734026145081
  0
ARC
  5
2A2
100
AcDbEntity
  8
20
  6
ByLayer
 62
  256
370
   -1
100
AcDbCircle
 10
75.25
 20
-33.5
 40
5
100
AcDbArc
 50
90
 51
157.0675853096752
  0
LINE
  5
2A3
100
AcDbEntity
  8
20
  6
ByLayer
 62
  256
370
   -1
100
AcDbLine
 10
75.25
 20
-28.5
 11
114.3305826175841
 21
-28.5
  0
ARC
  5
2A4
100
AcDbEntity
  8
20
  6
ByLayer
 62
  256
370
   -1
100
AcDbCircle
 10
114.3305826175841
 20
-33.5
 40
5
100
AcDbArc
 50
22.93241469032485
 51
90
  0
LINE
  5
2A5
100
AcDbEntity
  8
20
  6
ByLayer
 62
  256
370
   -1
100
AcDbLine
 10
118.9354081874778
 20
-31.5517747894936
 11
120.194449508673
 21
-34.52764515505839
  0
ARC
  5
2A6
100
AcDbEntity
  8
20
  6
ByLayer
 62
  256
370
   -1
100
AcDbCircle
 10
122.177533249084
 20
-33.68863536435676
 40
2.153266948238401
100
AcDbArc
 50
202.932414690325
 51
22.93241469032492
  0
LINE
  5
2A7
100
AcDbEntity
  8
20
  6
ByLayer
 62
  256
370
   -1
100
AcDbLine
 10
121.853469161976
 20
-27.39645042101283
 11
124.1606169894951
 21
-32.8496255736551
  0
ARC
  5
2A8
100
AcDbEntity
  8
20
  6
ByLayer
 62
  256
370
   -1
100
AcDbCircle
 10
131.0631203017635
 20
-23.50000000000002
 40
10
100
AcDbArc
 50
157.0675853096751
 51
202.9324146903249
  0
LINE
  5
2A9
100
AcDbEntity
  8
20
  6
ByLayer
 62
  256
370
   -1
100
AcDbLine
 10
124.1606169894951
 20
-14.15037442634495
 11
121.853469161976
 21
-19.60354957898721
  0
ARC
  5
2AA
100
AcDbEntity
  8
20
  6
ByLayer
 62
  256
370
   -1
100
AcDbCircle
 10
122.177533249084
 20
-13.3113646356433
 40
2.153266948238401
100
AcDbArc
 50
337.0675853096751
 51
157.0675853096752
  0
LINE
  5
2AB
100
AcDbEntity
  8
20
  6
ByLayer
 62
  256
370
   -1
100
AcDbLine
 10
120.194449508673
 20
-12.47235484494166
 11
118.9354081874778
 21
-15.4482252105064
  0
ARC
  5
2AC
100
AcDbEntity
  8
20
  6
ByLayer
 62
  256
370
   -1
100
AcDbCircle
 10
114.3305826175841
 20
-13.5
 40
5
100
AcDbArc
 50
270
 51
337.0675853096752
  0
LINE
  5
2AD
100
AcDbEntity
  8
20
  6
ByLayer
 62
  256
370
   -1
100
AcDbLine
 10
75.25
 20
-18.5
 11
114.3305826175841
 21
-18.5
  0
ARC
  5
2AE
100
AcDbEntity
  8
20
  6
ByLayer
 62
  256
370
   -1
100
AcDbCircle
 10
75.25
 20
-13.5
 40
5
100
AcDbArc
 50
202.9324146903249
 51
270
  0
CIRCLE
  5
2AF
100
AcDbEntity
  8
20
  6
ByLayer
 62
  256
370
   -1
100
AcDbCircle
 10
81.24695167279506
 20
-23.50000000000001
 40
1.75
  0
CIRCLE
  5
2B0
100
AcDbEntity
  8
20
  6
ByLayer
 62
  256
370
   -1
100
AcDbCircle
 10
96.24695167279506
 20
-23.50000000000002
 40
1.75
  0
CIRCLE
  5
2B1
100
AcDbEntity
  8
20
  6
ByLayer
 62
  256
370
   -1
100
AcDbCircle
 10
111.2469516727951
 20
-23.50000000000002
 40
1.75
  0
CIRCLE
  5
2B2
100
AcDbEntity
  8
21b
  6
ByLayer
 62
  256
370
   -1
100
AcDbCircle
 10
111.2469516727951
 20
-23.50000000000002
 40
1.75
  0
CIRCLE
  5
2B3
100
AcDbEntity
  8
21b
  6
ByLayer
 62
  256
370
   -1
100
AcDbCircle
 10
96.24695167279506
 20
-23.50000000000002
 40
1.75
  0
CIRCLE
  5
2B4
100
AcDbEntity
  8
21b
  6
ByLayer
 62
  256
370
   -1
100
AcDbCircle
 10
81.24695167279506
 20
-23.50000000000001
 40
1.75
  0
CIRCLE
  5
2B5
100
AcDbEntity
  8
21b
  6
ByLayer
 62
  256
370
   -1
100
AcDbCircle
 10
81.24695167279506
 20
-23.50000000000001
 40
2.75
  0
CIRCLE
  5
2B6
100
AcDbEntity
  8
21b
  6
ByLayer
 62
  256
370
   -1
100
AcDbCircle
 10
96.24695167279506
 20
-23.50000000000002
 40
2.75
  0
CIRCLE
  5
2B7
100
AcDbEntity
  8
21b
  6
ByLayer
 62
  256
370
   -1
100
AcDbCircle
 10
111.2469516727951
 20
-23.50000000000002
 40
2.75
  0
ARC
  5
2B8
100
AcDbEntity
  8
2xc
  6
ByLayer
 62
  256
370
   -1
100
AcDbCircle
 10
94.79029130879204
 20
10.3457626949504
 40
2
100
AcDbArc
 50
29.17436261822005
 51
150.8256373817799
  0
ARC
  5
2B9
100
AcDbEntity
  8
2xc
  6
ByLayer
 62
  256
370
   -1
100
AcDbCircle
 10
84.44749998904314
 20
4.128531087541336
 40
2
100
AcDbArc
 50
209.17436261822
 51
330.82563738178
  0
ARC
  5
2BA
100
AcDbEntity
  8
2xc
  6
ByLayer
 62
  256
370
   -1
100
AcDbCircle
 10
105.1330826285409
 20
4.128531087541333
 40
2
100
AcDbArc
 50
209.1743626182201
 51
330.8256373817799
  0
LINE
  5
2BB
100
AcDbEntity
  8
2xc
  6
ByLayer
 62
  256
370
   -1
100
AcDbLine
 10
106.8793632004611
 20
3.15359305662124
 11
112.1113984159105
 21
12.52506196907991
  0
ARC
  5
2BC
100
AcDbEntity
  8
2xc
  6
ByLayer
 62
  256
370
   -1
100
AcDbCircle
 10
110.3651178439904
 20
13.5
 40
2
100
AcDbArc
 50
330.8256373817799
 51
90
  0
LINE
  5
2BD
100
AcDbEntity
  8
2xc
  6
ByLayer
 62
  256
370
   -1
100
AcDbLine
 10
99.90104741309148
 20
15.5
 11
110.3651178439904
 21
15.5
  0
LINE
  5
2BE
100
AcDbEntity
  8
2xc
  6
ByLayer
 62
  256
370
   -1
100
AcDbLine
 10
98.15476684117135
 20
12.52506196907991
 11
103.3868020566208
 21
3.15359305662124
  0
ARC
  5
2BF
100
AcDbEntity
  8
2xc
  6
ByLayer
 62
  256
370
   -1
100
AcDbCircle
 10
99.90104741309148
 20
13.5
 40
2
100
AcDbArc
 50
90
 51
209.17436261822
  0
ARC
  5
2C0
100
AcDbEntity
  8
2xc
  6
ByLayer
 62
  256
370
   -1
100
AcDbCircle
 10
105.1330826285409
 20
-8.179943522557863
 40
2
100
AcDbArc
 50
29.17436261822001
 51
150.82563738178
  0
ARC
  5
2C1
100
AcDbEntity
  8
2xc
  6
ByLayer
 62
  256
370
   -1
100
AcDbCircle
 10
84.44749998904314
 20
-8.179943522557867
 40
2
100
AcDbArc
 50
29.17436261822001
 51
150.8256373817799
  0
LINE
  5
2C2
100
AcDbEntity
  8
2xc
  6
ByLayer
 62
  256
370
   -1
100
AcDbLine
 10
86.19378056096326
 20
-7.205005491637777
 11
90.28052444570696
 21
-14.52506196907991
  0
ARC
  5
2C3
100
AcDbEntity
  8
2xc
  6
ByLayer
 62
  256
370
   -1
100
AcDbCircle
 10
88.53424387378683
 20
-15.5
 40
2
100
AcDbArc
 50
270
 51
29.17436261822001
  0
LINE
  5
2C4
100
AcDbEntity
  8
2xc
  6
ByLayer
 62
  256
370
   -1
100
AcDbLine
 10
78.61447553237932
 20
-14.52506196907991
 11
82.70121941712301
 21
-7.205005491637774
  0
LINE
  5
2C5
100
AcDbEntity
  8
2xc
  6
ByLayer
 62
  256
370
   -1
100
AcDbLine
 10
88.53424387378683
 20
-17.5
 11
80.36075610429944
 21
-17.5
  0
ARC
  5
2C6
100
AcDbEntity
  8
2xc
  6
ByLayer
 62
  256
370
   -1
100
AcDbCircle
 10
80.36075610429944
 20
-15.5
 40
2
100
AcDbArc
 50
150.82563738178
 51
270
  0
LINE
  5
2C7
100
AcDbEntity
  8
2xc
  6
ByLayer
 62
  256
370
   -1
100
AcDbLine
 10
86.13709340924028
 20
-1.050768186588178
 11
93.04401073687191
 21
11.32070072587049
  0
ARC
  5
2C8
100
AcDbEntity
  8
2xc
  6
ByLayer
 62
  256
370
   -1
100
AcDbCircle
 10
87.8833739811604
 20
-2.025706217508267
 40
2
100
AcDbArc
 50
150.82563738178
 51
209.17436261822
  0
LINE
  5
2C9
100
AcDbEntity
  8
2xc
  6
ByLayer
 62
  256
370
   -1
100
AcDbLine
 10
96.53657188071216
 20
11.32070072587049
 11
103.4434892083438
 21
-1.050768186588167
  0
ARC
  5
2CA
100
AcDbEntity
  8
2xc
  6
ByLayer
 62
  256
370
   -1
100
AcDbCircle
 10
101.6972086364237
 20
-2.025706217508261
 40
2
100
AcDbArc
 50
330.8256373817799
 51
29.17436261822012
  0
LINE
  5
2CB
100
AcDbEntity
  8
2xc
  6
ByLayer
 62
  256
370
   -1
100
AcDbLine
 10
86.13709340924028
 20
-3.000644248428356
 11
93.04401073687191
 21
-15.37211316088703
  0
LINE
  5
2CC
100
AcDbEntity
  8
2xc
  6
ByLayer
 62
  256
370
   -1
100
AcDbLine
 10
96.53657188071216
 20
-15.37211316088703
 11
103.4434892083438
 21
-3.000644248428351
  0
ARC
  5
2CD
100
AcDbEntity
  8
2xc
  6
ByLayer
 62
  256
370
   -1
100
AcDbCircle
 10
94.79029130879204
 20
-14.39717512996694
 40
2
100
AcDbArc
 50
209.17436261822
 51
330.8256373817799
  0
ARC
  5
2CE
100
AcDbEntity
  8
2xc
  6
ByLayer
 62
  256
370
   -1
100
AcDbCircle
 10
111.3305826175841
 20
-6.972250174553338
 40
2
100
AcDbArc
 50
209.1743626182201
 51
359.9999999999999
  0
ARC
  5
2CF
100
AcDbEntity
  8
2xc
  6
ByLayer
 62
  256
370
   -1
100
AcDbCircle
 10
78.25
 20
-6.972250174553331
 40
2
100
AcDbArc
 50
180
 51
330.82563738178
  0
LINE
  5
2D0
100
AcDbEntity
  8
2xc
  6
ByLayer
 62
  256
370
   -1
100
AcDbLine
 10
86.19378056096326
 20
3.153593056621247
 11
91.42581577641272
 21
12.52506196907991
  0
ARC
  5
2D1
100
AcDbEntity
  8
2xc
  6
ByLayer
 62
  256
370
   -1
100
AcDbCircle
 10
89.67953520449259
 20
13.5
 40
2
100
AcDbArc
 50
330.82563738178
 51
90
  0
LINE
  5
2D2
100
AcDbEntity
  8
2xc
  6
ByLayer
 62
  256
370
   -1
100
AcDbLine
 10
79.21546477359368
 20
15.5
 11
89.67953520449259
 21
15.5
  0
LINE
  5
2D3
100
AcDbEntity
  8
2xc
  6
ByLayer
 62
  256
370
   -1
100
AcDbLine
 10
77.46918420167356
 20
12.52506196907991
 11
82.70121941712301
 21
3.153593056621245
  0
ARC
  5
2D4
100
AcDbEntity
  8
2xc
  6
ByLayer
 62
  256
370
   -1
100
AcDbCircle
 10
79.21546477359368
 20
13.5
 40
2
100
AcDbArc
 50
90
 51
209.17436261822
  0
LINE
  5
2D5
100
AcDbEntity
  8
2xc
  6
ByLayer
 62
  256
370
   -1
100
AcDbLine
 10
76.25
 20
-6.972250174553331
 11
76.25
 21
2.920837739536804
  0
ARC
  5
2D6
100
AcDbEntity
  8
2xc
  6
ByLayer
 62
  256
370
   -1
100
AcDbCircle
 10
78.25
 20
2.920837739536802
 40
2
100
AcDbArc
 50
29.17436261821997
 51
179.9999999999999
  0
LINE
  5
2D7
100
AcDbEntity
  8
2xc
  6
ByLayer
 62
  256
370
   -1
100
AcDbLine
 10
79.99628057192012
 20
3.89577577045689
 11
82.757906568846
 21
-1.050768186588176
  0
LINE
  5
2D8
100
AcDbEntity
  8
2xc
  6
ByLayer
 62
  256
370
   -1
100
AcDbLine
 10
79.99628057192012
 20
-7.94718820547342
 11
82.757906568846
 21
-3.000644248428355
  0
ARC
  5
2D9
100
AcDbEntity
  8
2xc
  6
ByLayer
 62
  256
370
   -1
100
AcDbCircle
 10
81.01162599692587
 20
-2.025706217508264
 40
2
100
AcDbArc
 50
330.8256373817799
 51
29.17436261821999
  0
LINE
  5
2DA
100
AcDbEntity
  8
2xc
  6
ByLayer
 62
  256
370
   -1
100
AcDbLine
 10
106.8226760487381
 20
-3.000644248428358
 11
109.584302045664
 21
-7.947188205473431
  0
ARC
  5
2DB
100
AcDbEntity
  8
2xc
  6
ByLayer
 62
  256
370
   -1
100
AcDbCircle
 10
108.5689566206582
 20
-2.025706217508267
 40
2
100
AcDbArc
 50
150.8256373817798
 51
209.17436261822
  0
LINE
  5
2DC
100
AcDbEntity
  8
2xc
  6
ByLayer
 62
  256
370
   -1
100
AcDbLine
 10
106.8226760487381
 20
-1.050768186588172
 11
109.584302045664
 21
3.895775770456895
  0
LINE
  5
2DD
100
AcDbEntity
  8
2xc
  6
ByLayer
 62
  256
370
   -1
100
AcDbLine
 10
113.3305826175841
 20
-6.97225017455334
 11
113.3305826175841
 21
2.920837739536804
  0
ARC
  5
2DE
100
AcDbEntity
  8
2xc
  6
ByLayer
 62
  256
370
   -1
100
AcDbCircle
 10
111.3305826175841
 20
2.920837739536804
 40
2
100
AcDbArc
 50
360
 51
150.82563738178
  0
LINE
  5
2DF
100
AcDbEntity
  8
2xc
  6
ByLayer
 62
  256
370
   -1
100
AcDbLine
 10
99.30005817187711
 20
-14.52506196907991
 11
103.3868020566208
 21
-7.205005491637774
  0
ARC
  5
2E0
100
AcDbEntity
  8
2xc
  6
ByLayer
 62
  256
370
   -1
100
AcDbCircle
 10
101.0463387437972
 20
-15.5
 40
2
100
AcDbArc
 50
150.82563738178
 51
270
  0
LINE
  5
2E1
100
AcDbEntity
  8
2xc
  6
ByLayer
 62
  256
370
   -1
100
AcDbLine
 10
106.8793632004611
 20
-7.205005491637774
 11
110.9661070852048
 21
-14.52506196907991
  0
LINE
  5
2E2
100
AcDbEntity
  8
2xc
  6
ByLayer
 62
  256
370
   -1
100
AcDbLine
 10
109.2198265132846
 20
-17.5
 11
101.0463387437972
 21
-17.5
  0
ARC
  5
2E3
100
AcDbEntity
  8
2xc
  6
ByLayer
 62
  256
370
   -1
100
AcDbCircle
 10
109.2198265132846
 20
-15.5
 40
2
100
AcDbArc
 50
270
 51
29.17436261822014
  0
ARC
  5
2E4
100
AcDbEntity
  8
102
  6
ByLayer
 62
  256
370
   -1
100
AcDbCircle
 10
123.2656399043323
 20
4.903460360485431
 40
2.25
100
AcDbArc
 50
337.0751835723054
 51
157.0751835723054
  0
LINE
  5
2E5
100
AcDbEntity
  8
102
  6
ByLayer
 62
  256
370
   -1
100
AcDbLine
 10
121.1933521526156
 20
5.779886897101628
 11
113.9358581440628
 21
-11.38026893312638
  0
LINE
  5
2E6
100
AcDbEntity
  8
102
  6
ByLayer
 62
  256
370
   -1
100
AcDbLine
 10
118.0804336474962
 20
-13.13312200635879
 11
125.337927656049
 21
4.027033823869202
  0
ARC
  5
2E7
100
AcDbEntity
  8
102
  6
ByLayer
 62
  256
370
   -1
100
AcDbCircle
 10
116.0081458957795
 20
-12.25669546974261
 40
2.25
100
AcDbArc
 50
157.0751835723053
 51
337.0751835723054
  0
ARC
  5
2E8
100
AcDbEntity
  8
102
  6
ByLayer
 62
  256
370
   -1
100
AcDbCircle
 10
116.0081458957795
 20
-34.74330453025742
 40
2.25
100
AcDbArc
 50
22.92481642769452
 51
202.9248164276947
  0
LINE
  5
2E9
100
AcDbEntity
  8
102
  6
ByLayer
 62
  256
370
   -1
100
AcDbLine
 10
118.0804336474962
 20
-33.8668779936412
 11
125.337927656049
 21
-51.02703382386922
  0
LINE
  5
2EA
100
AcDbEntity
  8
102
  6
ByLayer
 62
  256
370
   -1
100
AcDbLine
 10
121.1933521526157
 20
-52.77988689710162
 11
113.9358581440628
 21
-35.6197310668736
  0
ARC
  5
2EB
100
AcDbEntity
  8
102
  6
ByLayer
 62
  256
370
   -1
100
AcDbCircle
 10
123.2656399043323
 20
-51.90346036048546
 40
2.25
100
AcDbArc
 50
202.9248164276946
 51
22.92481642769463
  0
ARC
  5
2EC
100
AcDbEntity
  8
102
  6
ByLayer
 62
  256
370
   -1
100
AcDbCircle
 10
58.75
 20
5.650000000000007
 40
2.25
100
AcDbArc
 50
3.13e-14
 51
180
  0
LINE
  5
2ED
100
AcDbEntity
  8
102
  6
ByLayer
 62
  256
370
   -1
100
AcDbLine
 10
61
 20
5.650000000000009
 11
61
 21
-12.00000000000001
  0
LINE
  5
2EE
100
AcDbEntity
  8
102
  6
ByLayer
 62
  256
370
   -1
100
AcDbLine
 10
56.5
 20
5.650000000000007
 11
56.5
 21
-12.00000000000001
  0
ARC
  5
2EF
100
AcDbEntity
  8
102
  6
ByLayer
 62
  256
370
   -1
100
AcDbCircle
 10
58.75
 20
-12.00000000000001
 40
2.25
100
AcDbArc
 50
180
 51
0
  0
ARC
  5
2F0
100
AcDbEntity
  8
102
  6
ByLayer
 62
  256
370
   -1
100
AcDbCircle
 10
58.75
 20
-34.99999999999999
 40
2.25
100
AcDbArc
 50
0
 51
180
  0
LINE
  5
2F1
100
AcDbEntity
  8
102
  6
ByLayer
 62
  256
370
   -1
100
AcDbLine
 10
61
 20
-52.65000000000001
 11
61
 21
-34.99999999999999
  0
LINE
  5
2F2
100
AcDbEntity
  8
102
  6
ByLayer
 62
  256
370
   -1
100
AcDbLine
 10
56.5
 20
-52.65000000000001
 11
56.5
 21
-34.99999999999999
  0
ARC
  5
2F3
100
AcDbEntity
  8
102
  6
ByLayer
 62
  256
370
   -1
100
AcDbCircle
 10
58.75
 20
-52.65
 40
2.25
100
AcDbArc
 50
180
 51
359.9999999999999
  0
ARC
  5
2F4
100
AcDbEntity
  8
102
  6
ByLayer
 62
  256
370
   -1
100
AcDbCircle
 10
-5.7656399043323
 20
4.903460360485459
 40
2.25
100
AcDbArc
 50
22.92481642769456
 51
202.9248164276947
  0
LINE
  5
2F5
100
AcDbEntity
  8
102
  6
ByLayer
 62
  256
370
   -1
100
AcDbLine
 10
-3.69335215261563
 20
5.779886897101662
 11
3.564141855937173
 21
-11.38026893312638
  0
LINE
  5
2F6
100
AcDbEntity
  8
102
  6
ByLayer
 62
  256
370
   -1
100
AcDbLine
 10
-0.5804336474961638
 20
-13.13312200635879
 11
-7.837927656048965
 21
4.027033823869252
  0
ARC
  5
2F7
100
AcDbEntity
  8
102
  6
ByLayer
 62
  256
370
   -1
100
AcDbCircle
 10
1.491854104220506
 20
-12.25669546974258
 40
2.25
100
AcDbArc
 50
202.9248164276946
 51
22.92481642769464
  0
LINE
  5
2F8
100
AcDbEntity
  8
102
  6
ByLayer
 62
  256
370
   -1
100
AcDbLine
 10
-0.5804336474961764
 20
-33.8668779936412
 11
-7.837927656049
 21
-51.02703382386922
  0
ARC
  5
2F9
100
AcDbEntity
  8
102
  6
ByLayer
 62
  256
370
   -1
100
AcDbCircle
 10
1.491854104220494
 20
-34.74330453025739
 40
2.25
100
AcDbArc
 50
337.0751835723053
 51
157.0751835723054
  0
LINE
  5
2FA
100
AcDbEntity
  8
102
  6
ByLayer
 62
  256
370
   -1
100
AcDbLine
 10
-3.693352152615661
 20
-52.77988689710163
 11
3.564141855937172
 21
-35.6197310668736
  0
ARC
  5
2FB
100
AcDbEntity
  8
102
  6
ByLayer
 62
  256
370
   -1
100
AcDbCircle
 10
-5.76563990433228
 20
-51.90346036048545
 40
2.25
100
AcDbArc
 50
157.0751835723053
 51
337.0751835723054
  0
ARC
  5
2FC
100
AcDbEntity
  8
101
  6
ByLayer
 62
  256
370
   -1
100
AcDbCircle
 10
-5.7656399043323
 20
4.903460360485459
 40
4.25
100
AcDbArc
 50
22.92481642769456
 51
202.9248164276947
  0
ARC
  5
2FD
100
AcDbEntity
  8
101
  6
ByLayer
 62
  256
370
   -1
100
AcDbCircle
 10
-5.76563990433228
 20
-51.90346036048545
 40
4.25
100
AcDbArc
 50
157.0751835723053
 51
337.0751835723054
  0
LINE
  5
2FE
100
AcDbEntity
  8
101
  6
ByLayer
 62
  256
370
   -1
100
AcDbLine
 10
54.5
 20
-52.65000000000001
 11
54.5
 21
-34.99999999999999
  0
ARC
  5
2FF
100
AcDbEntity
  8
101
  6
ByLayer
 62
  256
370
   -1
100
AcDbCircle
 10
58.75
 20
-52.65
 40
4.25
100
AcDbArc
 50
180
 51
359.9999999999999
  0
LINE
  5
300
100
AcDbEntity
  8
101
  6
ByLayer
 62
  256
370
   -1
100
AcDbLine
 10
63
 20
-52.65000000000001
 11
63
 21
-34.99999999999999
  0
ARC
  5
301
100
AcDbEntity
  8
101
  6
ByLayer
 62
  256
370
   -1
100
AcDbCircle
 10
123.2656399043323
 20
-51.90346036048546
 40
4.25
100
AcDbArc
 50
202.9248164276946
 51
22.92481642769463
  0
ARC
  5
302
100
AcDbEntity
  8
101
  6
ByLayer
 62
  256
370
   -1
100
AcDbCircle
 10
123.2656399043323
 20
4.903460360485431
 40
4.25
100
AcDbArc
 50
337.0751835723054
 51
157.0751835723054
  0
LINE
  5
303
100
AcDbEntity
  8
101
  6
ByLayer
 62
  256
370
   -1
100
AcDbLine
 10
63
 20
5.650000000000008
 11
63
 21
-12.00000000000001
  0
ARC
  5
304
100
AcDbEntity
  8
101
  6
ByLayer
 62
  256
370
   -1
100
AcDbCircle
 10
58.75
 20
5.650000000000007
 40
4.25
100
AcDbArc
 50
3.13e-14
 51
180
  0
LINE
  5
305
100
AcDbEntity
  8
101
  6
ByLayer
 62
  256
370
   -1
100
AcDbLine
 10
54.5
 20
5.650000000000008
 11
54.5
 21
-12.00000000000001
  0
ARC
  5
306
100
AcDbEntity
  8
101
  6
ByLayer
 62
  256
370
   -1
100
AcDbCircle
 10
58.75
 20
-12.00000000000001
 40
4.25
100
AcDbArc
 50
180
 51
0
  0
ARC
  5
307
100
AcDbEntity
  8
101
  6
ByLayer
 62
  256
370
   -1
100
AcDbCircle
 10
58.75
 20
-34.99999999999999
 40
4.25
100
AcDbArc
 50
0
 51
180
  0
ARC
  5
308
100
AcDbEntity
  8
101
  6
ByLayer
 62
  256
370
   -1
100
AcDbCircle
 10
116.0081458957795
 20
-12.25669546974261
 40
4.25
100
AcDbArc
 50
157.0751835723053
 51
337.0751835723054
  0
ARC
  5
309
100
AcDbEntity
  8
101
  6
ByLayer
 62
  256
370
   -1
100
AcDbCircle
 10
116.0081458957795
 20
-34.74330453025742
 40
4.25
100
AcDbArc
 50
22.92481642769452
 51
202.9248164276947
  0
ARC
  5
30A
100
AcDbEntity
  8
101
  6
ByLayer
 62
  256
370
   -1
100
AcDbCircle
 10
1.491854104220506
 20
-12.25669546974258
 40
4.25
100
AcDbArc
 50
202.9248164276946
 51
22.92481642769464
  0
ARC
  5
30B
100
AcDbEntity
  8
101
  6
ByLayer
 62
  256
370
   -1
100
AcDbCircle
 10
1.491854104220494
 20
-34.74330453025739
 40
4.25
100
AcDbArc
 50
337.0751835723053
 51
157.0751835723054
  0
LINE
  5
30C
100
AcDbEntity
  8
101
  6
ByLayer
 62
  256
370
   -1
100
AcDbLine
 10
-9.679961213130451
 20
-50.24798801354373
 11
-2.422467204577647
 21
-33.08783218331568
  0
LINE
  5
30D
100
AcDbEntity
  8
101
  6
ByLayer
 62
  256
370
   -1
100
AcDbLine
 10
-1.851318595534145
 20
-53.55893270742716
 11
5.406175413018659
 21
-36.39877687719913
  0
LINE
  5
30E
100
AcDbEntity
  8
101
  6
ByLayer
 62
  256
370
   -1
100
AcDbLine
 10
-1.851318595534144
 20
6.558932707427174
 11
5.406175413018657
 21
-10.60122312280086
  0
LINE
  5
30F
100
AcDbEntity
  8
101
  6
ByLayer
 62
  256
370
   -1
100
AcDbLine
 10
-2.422467204577649
 20
-13.9121678166843
 11
-9.679961213130449
 21
3.247988013543739
  0
LINE
  5
310
100
AcDbEntity
  8
101
  6
ByLayer
 62
  256
370
   -1
100
AcDbLine
 10
127.1799609824487
 20
3.247987468102872
 11
119.9224672045776
 21
-13.91216781668432
  0
LINE
  5
311
100
AcDbEntity
  8
101
  6
ByLayer
 62
  256
370
   -1
100
AcDbLine
 10
119.3513185955342
 20
6.558932707427141
 11
112.0938245869813
 21
-10.60122312280089
  0
LINE
  5
312
100
AcDbEntity
  8
101
  6
ByLayer
 62
  256
370
   -1
100
AcDbLine
 10
127.1799612131304
 20
-50.24798801354373
 11
119.9224672045777
 21
-33.08783218331569
  0
LINE
  5
313
100
AcDbEntity
  8
101
  6
ByLayer
 62
  256
370
   -1
100
AcDbLine
 10
119.349913946919
 20
-53.55952677131616
 11
112.0901442494298
 21
-36.40033339148687
  0
ARC
  5
314
100
AcDbEntity
  8
100
  6
ByLayer
 62
  256
370
   -1
100
AcDbCircle
 10
58.75
 20
5.650000000000007
 40
4.25
100
AcDbArc
 50
3.13e-14
 51
180
  0
ARC
  5
315
100
AcDbEntity
  8
100
  6
ByLayer
 62
  256
370
   -1
100
AcDbCircle
 10
123.2656399043323
 20
4.903460360485431
 40
4.25
100
AcDbArc
 50
337.0751835723054
 51
157.0751835723054
  0
ARC
  5
316
100
AcDbEntity
  8
100
  6
ByLayer
 62
  256
370
   -1
100
AcDbCircle
 10
123.2656399043323
 20
-51.90346036048546
 40
4.25
100
AcDbArc
 50
202.9248164276946
 51
22.92481642769463
  0
ARC
  5
317
100
AcDbEntity
  8
100
  6
ByLayer
 62
  256
370
   -1
100
AcDbCircle
 10
58.75
 20
-52.65
 40
4.25
100
AcDbArc
 50
180
 51
359.9999999999999
  0
ARC
  5
318
100
AcDbEntity
  8
100
  6
ByLayer
 62
  256
370
   -1
100
AcDbCircle
 10
-5.76563990433228
 20
-51.90346036048545
 40
4.25
100
AcDbArc
 50
157.0751835723053
 51
337.0751835723054
  0
ARC
  5
319
100
AcDbEntity
  8
100
  6
ByLayer
 62
  256
370
   -1
100
AcDbCircle
 10
-5.7656399043323
 20
4.903460360485459
 40
4.25
100
AcDbArc
 50
22.92481642769456
 51
202.9248164276947
  0
LINE
  5
31A
100
AcDbEntity
  8
100
  6
ByLayer
 62
  256
370
   -1
100
AcDbLine
 10
-0.8386102374191866
 20
-17.65715642255865
 11
-9.679961213130449
 21
3.247988013543739
  0
LINE
  5
31B
100
AcDbEntity
  8
100
  6
ByLayer
 62
  256
370
   -1
100
AcDbLine
 10
-9.679961213130451
 20
-50.24798801354373
 11
-0.8386102374191857
 21
-29.34284357744134
  0
ARC
  5
31C
100
AcDbEntity
  8
100
  6
ByLayer
 62
  256
370
   -1
100
AcDbCircle
 10
-14.65386191553032
 20
-23.49999999999999
 40
15
100
AcDbArc
 50
337.0751835723054
 51
22.92481642769454
  0
LINE
  5
31D
100
AcDbEntity
  8
100
  6
ByLayer
 62
  256
370
   -1
100
AcDbLine
 10
127.1799609824487
 20
3.247987468102872
 11
118.3386102374192
 21
-17.65715642255862
  0
LINE
  5
31E
100
AcDbEntity
  8
100
  6
ByLayer
 62
  256
370
   -1
100
AcDbLine
 10
127.1799612131304
 20
-50.24798801354373
 11
118.3386102374192
 21
-29.3428435774413
  0
ARC
  5
31F
100
AcDbEntity
  8
100
  6
ByLayer
 62
  256
370
   -1
100
AcDbCircle
 10
132.1538619155303
 20
-23.49999999999996
 40
15
100
AcDbArc
 50
157.0751835723055
 51
202.9248164276945
  0
LINE
  5
320
100
AcDbEntity
  8
100
  6
ByLayer
 62
  256
370
   -1
100
AcDbLine
 10
-1.851318595534144
 20
6.558932707427174
 11
4.115239042168364
 21
-7.548837648614644
  0
ARC
  5
321
100
AcDbEntity
  8
100
  6
ByLayer
 62
  256
370
   -1
100
AcDbCircle
 10
8.720322934872076
 20
-5.601223122800861
 40
5
100
AcDbArc
 50
202.9248164276945
 51
270
  0
LINE
  5
322
100
AcDbEntity
  8
100
  6
ByLayer
 62
  256
370
   -1
100
AcDbLine
 10
-1.851318595534145
 20
-53.55893270742716
 11
4.115218592166947
 21
-39.45121070488183
  0
ARC
  5
323
100
AcDbEntity
  8
100
  6
ByLayer
 62
  256
370
   -1
100
AcDbCircle
 10
8.720302484870656
 20
-41.39882523069561
 40
5
100
AcDbArc
 50
89.99916405716429
 51
157.0751835723054
  0
LINE
  5
324
100
AcDbEntity
  8
100
  6
ByLayer
 62
  256
370
   -1
100
AcDbLine
 10
119.3513185955342
 20
6.558932707427141
 11
113.3847609578316
 21
-7.548837648614672
  0
ARC
  5
325
100
AcDbEntity
  8
100
  6
ByLayer
 62
  256
370
   -1
100
AcDbCircle
 10
108.7796770651279
 20
-5.601223122800886
 40
5
100
AcDbArc
 50
270
 51
337.0751835723054
  0
LINE
  5
326
100
AcDbEntity
  8
100
  6
ByLayer
 62
  256
370
   -1
100
AcDbLine
 10
119.349913946919
 20
-53.55952677131616
 11
113.3812790171665
 21
-39.45205983491348
  0
ARC
  5
327
100
AcDbEntity
  8
100
  6
ByLayer
 62
  256
370
   -1
100
AcDbCircle
 10
108.7764534472728
 20
-41.40028504541988
 40
5
100
AcDbArc
 50
22.93241469032484
 51
89.99916405716428
  0
CIRCLE
  5
328
100
AcDbEntity
  8
100
  6
ByLayer
 62
  256
370
   -1
100
AcDbCircle
 10
58.74999551603273
 20
-23.50038914270824
 40
10.15
  0
ARC
  5
329
100
AcDbEntity
  8
100
  6
ByLayer
 62
  256
370
   -1
100
AcDbCircle
 10
9.027344533082418
 20
-19.60122312280086
 40
5
100
AcDbArc
 50
89.99999999999999
 51
189.3490757458212
  0
ARC
  5
32A
100
AcDbEntity
  8
100
  6
ByLayer
 62
  256
370
   -1
100
AcDbCircle
 10
-14.65386191553032
 20
-23.49999999999999
 40
19
100
AcDbArc
 50
350.6507964300837
 51
9.349075745821255
  0
ARC
  5
32B
100
AcDbEntity
  8
100
  6
ByLayer
 62
  256
370
   -1
100
AcDbCircle
 10
9.027335835042056
 20
-27.39882970880827
 40
5
100
AcDbArc
 50
170.6507964300839
 51
269.9991640571643
  0
ARC
  5
32C
100
AcDbEntity
  8
100
  6
ByLayer
 62
  256
370
   -1
100
AcDbCircle
 10
108.4726554669175
 20
-19.60122312280089
 40
5
100
AcDbArc
 50
350.650924254179
 51
89.99999999999983
  0
ARC
  5
32D
100
AcDbEntity
  8
100
  6
ByLayer
 62
  256
370
   -1
100
AcDbCircle
 10
108.472903085214
 20
-27.40028061514374
 40
5
100
AcDbArc
 50
269.9991640571643
 51
9.352714001681646
  0
LINE
  5
32E
100
AcDbEntity
  8
100
  6
ByLayer
 62
  256
370
   -1
100
AcDbLine
 10
54.5
 20
5.650000000000008
 11
54.5
 21
-0.60122312280087
  0
LINE
  5
32F
100
AcDbEntity
  8
100
  6
ByLayer
 62
  256
370
   -1
100
AcDbLine
 10
8.720322934872074
 20
-10.60122312280086
 11
44.5
 21
-10.60122312280087
  0
ARC
  5
330
100
AcDbEntity
  8
100
  6
ByLayer
 62
  256
370
   -1
100
AcDbCircle
 10
44.5
 20
-0.6012231228008695
 40
10
100
AcDbArc
 50
270
 51
0
  0
LINE
  5
331
100
AcDbEntity
  8
100
  6
ByLayer
 62
  256
370
   -1
100
AcDbLine
 10
63
 20
5.650000000000008
 11
63
 21
-0.6012231228008771
  0
LINE
  5
332
100
AcDbEntity
  8
100
  6
ByLayer
 62
  256
370
   -1
100
AcDbLine
 10
73
 20
-10.60122312280088
 11
108.7796770651279
 21
-10.60122312280089
  0
ARC
  5
333
100
AcDbEntity
  8
100
  6
ByLayer
 62
  256
370
   -1
100
AcDbCircle
 10
73
 20
-0.6012231228008775
 40
10
100
AcDbArc
 50
180
 51
270
  0
LINE
  5
334
100
AcDbEntity
  8
100
  6
ByLayer
 62
  256
370
   -1
100
AcDbLine
 10
73.00014589954841
 20
-36.39976307017616
 11
108.776526397047
 21
-36.40028504595205
  0
LINE
  5
335
100
AcDbEntity
  8
100
  6
ByLayer
 62
  256
370
   -1
100
AcDbLine
 10
63
 20
-52.65000000000001
 11
63
 21
-46.39976306911181
  0
ARC
  5
336
100
AcDbEntity
  8
100
  6
ByLayer
 62
  256
370
   -1
100
AcDbCircle
 10
73
 20
-46.39976306911181
 40
10
100
AcDbArc
 50
89.99916405716428
 51
180
  0
LINE
  5
337
100
AcDbEntity
  8
100
  6
ByLayer
 62
  256
370
   -1
100
AcDbLine
 10
54.5
 20
-52.65000000000001
 11
54.5
 21
-46.39934725539881
  0
LINE
  5
338
100
AcDbEntity
  8
100
  6
ByLayer
 62
  256
370
   -1
100
AcDbLine
 10
8.720375434644861
 20
-36.39882523122778
 11
44.50014589954841
 21
-36.39934725646314
  0
ARC
  5
339
100
AcDbEntity
  8
100
  6
ByLayer
 62
  256
370
   -1
100
AcDbCircle
 10
44.5
 20
-46.39934725539881
 40
10
100
AcDbArc
 50
0
 51
89.99916405716428
  0
ARC
  5
33A
100
AcDbEntity
  8
100
  6
ByLayer
 62
  256
370
   -1
100
AcDbCircle
 10
58.74999551603273
 20
-23.50038914270824
 40
13.65
100
AcDbArc
 50
139.3109460408266
 51
220.688218000489
  0
ARC
  5
33B
100
AcDbEntity
  8
100
  6
ByLayer
 62
  256
370
   -1
100
AcDbCircle
 10
58.74999551603273
 20
-23.50038914270824
 40
13.65
100
AcDbArc
 50
40.68905395917342
 51
139.3109460408266
  0
ARC
  5
33C
100
AcDbEntity
  8
100
  6
ByLayer
 62
  256
370
   -1
100
AcDbCircle
 10
58.74999551603273
 20
-23.50038914270824
 40
13.65
100
AcDbArc
 50
220.688218000489
 51
319.3101101138394
  0
ARC
  5
33D
100
AcDbEntity
  8
100
  6
ByLayer
 62
  256
370
   -1
100
AcDbCircle
 10
58.74999551603273
 20
-23.50038914270824
 40
13.65
100
AcDbArc
 50
319.3101101138394
 51
40.68905395917342
  0
ARC
  5
33E
100
AcDbEntity
  8
100
  6
ByLayer
 62
  256
370
   -1
100
AcDbCircle
 10
132.1538619155303
 20
-23.49999999999996
 40
19
100
AcDbArc
 50
170.650924254179
 51
189.3527140016815
  0
LINE
  5
33F
100
AcDbEntity
  8
100
  6
ByLayer
 62
  256
370
   -1
100
AcDbLine
 10
81.0617236070882
 20
-32.39988068780514
 11
108.4728301354398
 21
-32.40028061461157
  0
ARC
  5
340
100
AcDbEntity
  8
100
  6
ByLayer
 62
  256
370
   -1
100
AcDbCircle
 10
81.0617965568624
 20
-27.39988068833731
 40
5
100
AcDbArc
 50
170.0863967162549
 51
269.9991640571643
  0
LINE
  5
341
100
AcDbEntity
  8
100
  6
ByLayer
 62
  256
370
   -1
100
AcDbLine
 10
9.02726288526785
 20
-32.3988297082761
 11
36.43800774811665
 21
-32.39922962980584
  0
ARC
  5
342
100
AcDbEntity
  8
100
  6
ByLayer
 62
  256
370
   -1
100
AcDbCircle
 10
36.43808069789085
 20
-27.39922963033802
 40
5
100
AcDbArc
 50
269.9991640571643
 51
9.911931398073818
  0
LINE
  5
343
100
AcDbEntity
  8
100
  6
ByLayer
 62
  256
370
   -1
100
AcDbLine
 10
9.02734453308242
 20
-14.60122312280086
 11
36.43813758467256
 21
-14.60122312280087
  0
ARC
  5
344
100
AcDbEntity
  8
100
  6
ByLayer
 62
  256
370
   -1
100
AcDbCircle
 10
58.74999551603273
 20
-23.50038914270824
 40
17.65
100
AcDbArc
 50
170.0872326517386
 51
189.9119313980737
  0
ARC
  5
345
100
AcDbEntity
  8
100
  6
ByLayer
 62
  256
370
   -1
100
AcDbCircle
 10
36.43813758467256
 20
-19.60122312280087
 40
5
100
AcDbArc
 50
350.0872326517386
 51
90
  0
LINE
  5
346
100
AcDbEntity
  8
100
  6
ByLayer
 62
  256
370
   -1
100
AcDbLine
 10
81.06185344739291
 20
-14.60122312280088
 11
108.4726554669175
 21
-14.60122312280089
  0
ARC
  5
347
100
AcDbEntity
  8
100
  6
ByLayer
 62
  256
370
   -1
100
AcDbCircle
 10
58.74999551603273
 20
-23.50038914270824
 40
17.65
100
AcDbArc
 50
350.0863967162549
 51
9.912767348261342
  0
ARC
  5
348
100
AcDbEntity
  8
100
  6
ByLayer
 62
  256
370
   -1
100
AcDbCircle
 10
81.06185344739291
 20
-19.60122312280088
 40
5
100
AcDbArc
 50
90
 51
189.9127673482613
  0
ARC
  5
349
100
AcDbEntity
  8
101
  6
ByLayer
 62
  256
370
   -1
100
AcDbCircle
 10
58.74999551603273
 20
-23.50038914270824
 40
17.65
100
AcDbArc
 50
166.065338005583
 51
193.9320589170953
  0
ARC
  5
34A
100
AcDbEntity
  8
101
  6
ByLayer
 62
  256
370
   -1
100
AcDbCircle
 10
58.74999551603273
 20
-23.50038914270824
 40
17.65
100
AcDbArc
 50
346.0679410829047
 51
13.93466199441704
  0
LINE
  5
34B
100
AcDbEntity
  8
101
  6
ByLayer
 62
  256
370
   -1
100
AcDbLine
 10
41.61941782187577
 20
-19.25000000000001
 11
75.88057321018968
 21
-19.25000000000002
  0
LINE
  5
34C
100
AcDbEntity
  8
101
  6
ByLayer
 62
  256
370
   -1
100
AcDbLine
 10
41.61922473472845
 20
-27.74999999999998
 11
75.880766297337
 21
-27.74999999999998
  0
CIRCLE
  5
34D
100
AcDbEntity
  8
201
  6
ByLayer
 62
  256
370
   -1
100
AcDbCircle
 10
58.74999551603273
 20
-23.50038914270824
 40
15.15
  0
ARC
  5
34E
100
AcDbEntity
  8
200
  6
ByLayer
 62
  256
370
   -1
100
AcDbCircle
 10
-14.24999551603273
 20
22.89916601990737
 40
10
100
AcDbArc
 50
270
 51
0
  0
LINE
  5
34F
100
AcDbEntity
  8
200
  6
ByLayer
 62
  256
370
   -1
100
AcDbLine
 10
-50.02967258116066
 20
12.89916601990738
 11
-14.24999551603273
 21
12.89916601990737
  0
ARC
  5
350
100
AcDbEntity
  8
200
  6
ByLayer
 62
  256
370
   -1
100
AcDbCircle
 10
-50.02967258116065
 20
17.89916601990738
 40
5
100
AcDbArc
 50
202.9248164276945
 51
270
  0
ARC
  5
351
100
AcDbEntity
  8
200
  6
ByLayer
 62
  256
370
   -1
100
AcDbCircle
 10
-73.40385743156305
 20
0.0003891427082507448
 40
15
100
AcDbArc
 50
337.0751835723054
 51
22.92481642769454
  0
ARC
  5
352
100
AcDbEntity
  8
200
  6
ByLayer
 62
  256
370
   -1
100
AcDbCircle
 10
-50.02969303116208
 20
-17.89843608798737
 40
5
100
AcDbArc
 50
89.99916405716429
 51
157.0751835723054
  0
LINE
  5
353
100
AcDbEntity
  8
200
  6
ByLayer
 62
  256
370
   -1
100
AcDbLine
 10
-50.02962008138788
 20
-12.89843608851954
 11
-14.24984961648432
 21
-12.8989581137549
  0
ARC
  5
354
100
AcDbEntity
  8
200
  6
ByLayer
 62
  256
370
   -1
100
AcDbCircle
 10
-14.24999551603273
 20
-22.89895811269056
 40
10
100
AcDbArc
 50
0
 51
89.99916405716428
  0
ARC
  5
355
100
AcDbEntity
  8
200
  6
ByLayer
 62
  256
370
   -1
100
AcDbCircle
 10
14.25000448396727
 20
-22.89937392640357
 40
10
100
AcDbArc
 50
89.99916405716428
 51
180
  0
LINE
  5
356
100
AcDbEntity
  8
200
  6
ByLayer
 62
  256
370
   -1
100
AcDbLine
 10
14.25015038351568
 20
-12.89937392746791
 11
50.02653088101426
 21
-12.8998959032438
  0
ARC
  5
357
100
AcDbEntity
  8
200
  6
ByLayer
 62
  256
370
   -1
100
AcDbCircle
 10
50.02645793124005
 20
-17.89989590271163
 40
5
100
AcDbArc
 50
22.93241469032484
 51
89.99916405716428
  0
ARC
  5
358
100
AcDbEntity
  8
200
  6
ByLayer
 62
  256
370
   -1
100
AcDbCircle
 10
73.40386639949762
 20
0.0003891427082827192
 40
15
100
AcDbArc
 50
157.0751835723055
 51
202.9248164276945
  0
ARC
  5
359
100
AcDbEntity
  8
200
  6
ByLayer
 62
  256
370
   -1
100
AcDbCircle
 10
50.02968154909519
 20
17.89916601990736
 40
5
100
AcDbArc
 50
270
 51
337.0751835723054
  0
LINE
  5
35A
100
AcDbEntity
  8
200
  6
ByLayer
 62
  256
370
   -1
100
AcDbLine
 10
14.25000448396727
 20
12.89916601990737
 11
50.02968154909519
 21
12.89916601990736
  0
ARC
  5
35B
100
AcDbEntity
  8
200
  6
ByLayer
 62
  256
370
   -1
100
AcDbCircle
 10
14.25000448396727
 20
22.89916601990737
 40
10
100
AcDbArc
 50
180
 51
270
  0
LINE
  5
35C
100
AcDbEntity
  8
200
  6
ByLayer
 62
  256
370
   -1
100
AcDbLine
 10
4.250004483967267
 20
77.96754119389765
 11
4.250004483967267
 21
22.89916601990737
  0
ARC
  5
35D
100
AcDbEntity
  8
200
  6
ByLayer
 62
  256
370
   -1
100
AcDbCircle
 10
2.250004483967265
 20
77.96754119389765
 40
2
100
AcDbArc
 50
0
 51
88.34700453761363
  0
LINE
  5
35E
100
AcDbEntity
  8
200
  6
ByLayer
 62
  256
370
   -1
100
AcDbLine
 10
-4.249995516032733
 20
77.96754145269576
 11
-4.249995516032733
 21
22.89916633313718
  0
ARC
  5
35F
100
AcDbEntity
  8
200
  6
ByLayer
 62
  256
370
   -1
100
AcDbCircle
 10
0
 20
0
 40
80
100
AcDbArc
 50
88.34700453761384
 51
91.6529888721463
  0
ARC
  5
360
100
AcDbEntity
  8
200
  6
ByLayer
 62
  256
370
   -1
100
AcDbCircle
 10
-2.249995516032731
 20
77.96754145269576
 40
2
100
AcDbArc
 50
91.65298887214651
 51
180
  0
LINE
  5
361
100
AcDbEntity
  8
200
  6
ByLayer
 62
  256
370
   -1
100
AcDbLine
 10
4.250004483967274
 20
-77.96754119389765
 11
4.250004483967267
 21
-22.89937392640357
  0
ARC
  5
362
100
AcDbEntity
  8
200
  6
ByLayer
 62
  256
370
   -1
100
AcDbCircle
 10
2.250004483967268
 20
-77.96754119389765
 40
2
100
AcDbArc
 50
271.6529954623852
 51
0
  0
LINE
  5
363
100
AcDbEntity
  8
200
  6
ByLayer
 62
  256
370
   -1
100
AcDbLine
 10
-4.249995516032726
 20
-77.96754145269576
 11
-4.249995516032733
 21
-22.89895811269056
  0
ARC
  5
364
100
AcDbEntity
  8
200
  6
ByLayer
 62
  256
370
   -1
100
AcDbCircle
 10
0
 20
0
 40
80
100
AcDbArc
 50
268.3470111278537
 51
271.6529954623862
  0
ARC
  5
365
100
AcDbEntity
  8
200
  6
ByLayer
 62
  256
370
   -1
100
AcDbCircle
 10
-2.249995516032723
 20
-77.96754145269576
 40
2
100
AcDbArc
 50
180
 51
268.3470111278537
  0
LINE
  5
366
100
AcDbEntity
  8
200
  6
ByLayer
 62
  256
370
   -1
100
AcDbLine
 10
-65.12903324526806
 20
40.76499598479597
 11
-54.63475647386437
 21
15.9515514940936
  0
ARC
  5
367
100
AcDbEntity
  8
200
  6
ByLayer
 62
  256
370
   -1
100
AcDbCircle
 10
-66.97106680234954
 20
39.98595017447046
 40
2
100
AcDbArc
 50
22.92481642769444
 51
149.1601348189229
  0
ARC
  5
368
100
AcDbEntity
  8
200
  6
ByLayer
 62
  256
370
   -1
100
AcDbCircle
 10
0
 20
0
 40
80
100
AcDbArc
 50
149.1601348189224
 51
153.3756498944765
  0
LINE
  5
369
100
AcDbEntity
  8
200
  6
ByLayer
 62
  256
370
   -1
100
AcDbLine
 10
-59.58860575345192
 20
5.843232720149594
 11
-71.57121488499534
 21
34.17580036783568
  0
ARC
  5
36A
100
AcDbEntity
  8
200
  6
ByLayer
 62
  256
370
   -1
100
AcDbCircle
 10
-69.72918132791386
 20
34.95484617816118
 40
2
100
AcDbArc
 50
153.3756498944769
 51
202.9248164276945
  0
LINE
  5
36B
100
AcDbEntity
  8
200
  6
ByLayer
 62
  256
370
   -1
100
AcDbLine
 10
-71.57139341856352
 20
-34.17544422039783
 11
-59.58860575345192
 21
-5.842454434733096
  0
ARC
  5
36C
100
AcDbEntity
  8
200
  6
ByLayer
 62
  256
370
   -1
100
AcDbCircle
 10
-69.72935986148204
 20
-34.95449003072334
 40
2
100
AcDbArc
 50
157.0751835723054
 51
206.6240574630673
  0
LINE
  5
36D
100
AcDbEntity
  8
200
  6
ByLayer
 62
  256
370
   -1
100
AcDbLine
 10
-65.12922592126272
 20
-40.76467327675766
 11
-54.63477692386579
 21
-15.95082156217359
  0
ARC
  5
36E
100
AcDbEntity
  8
200
  6
ByLayer
 62
  256
370
   -1
100
AcDbCircle
 10
0
 20
0
 40
80
100
AcDbArc
 50
206.6240574630665
 51
210.8395890949571
  0
ARC
  5
36F
100
AcDbEntity
  8
200
  6
ByLayer
 62
  256
370
   -1
100
AcDbCircle
 10
-66.97125947834419
 20
-39.98562746643215
 40
2
100
AcDbArc
 50
210.8395890949569
 51
337.0751835723054
  0
LINE
  5
370
100
AcDbEntity
  8
200
  6
ByLayer
 62
  256
370
   -1
100
AcDbLine
 10
65.12903849475246
 20
40.76498719261721
 11
54.6347654417989
 21
15.95155149409357
  0
ARC
  5
371
100
AcDbEntity
  8
200
  6
ByLayer
 62
  256
370
   -1
100
AcDbCircle
 10
66.97107205183394
 20
39.98594138229169
 40
2
100
AcDbArc
 50
30.83985765910198
 51
157.0751835723054
  0
LINE
  5
372
100
AcDbEntity
  8
200
  6
ByLayer
 62
  256
370
   -1
100
AcDbLine
 10
71.57121974917038
 20
34.17579066460306
 11
59.58861472138647
 21
5.843232720149622
  0
ARC
  5
373
100
AcDbEntity
  8
200
  6
ByLayer
 62
  256
370
   -1
100
AcDbCircle
 10
0
 20
0
 40
80
100
AcDbArc
 50
26.62434213247335
 51
30.83985765910217
  0
ARC
  5
374
100
AcDbEntity
  8
200
  6
ByLayer
 62
  256
370
   -1
100
AcDbCircle
 10
69.7291861920889
 20
34.95483647492858
 40
2
100
AcDbArc
 50
337.0751835723054
 51
26.62434213247279
  0
LINE
  5
375
100
AcDbEntity
  8
200
  6
ByLayer
 62
  256
370
   -1
100
AcDbLine
 10
71.57139828271019
 20
-34.17543451709815
 11
59.58861472138646
 21
-5.84245443473306
  0
ARC
  5
376
100
AcDbEntity
  8
200
  6
ByLayer
 62
  256
370
   -1
100
AcDbCircle
 10
69.7293647256287
 20
-34.95448032742367
 40
2
100
AcDbArc
 50
333.3759505100168
 51
22.92481642769446
  0
ARC
  5
377
100
AcDbEntity
  8
200
  6
ByLayer
 62
  256
370
   -1
100
AcDbCircle
 10
0
 20
0
 40
80
100
AcDbArc
 50
329.1604334123575
 51
333.3759505100183
  0
LINE
  5
378
100
AcDbEntity
  8
200
  6
ByLayer
 62
  256
370
   -1
100
AcDbLine
 10
65.12934495780546
 20
-40.76489124252966
 11
54.63128350113379
 21
-15.95167069220524
  0
ARC
  5
379
100
AcDbEntity
  8
200
  6
ByLayer
 62
  256
370
   -1
100
AcDbCircle
 10
66.97127518576296
 20
-39.9856011583271
 40
2
100
AcDbArc
 50
202.9324146903249
 51
329.1604334123564
  0
ARC
  5
37A
100
AcDbEntity
  8
298
  6
ByLayer
 62
  256
370
   -1
100
AcDbCircle
 10
22.47764655772573
 20
27.08986061447809
 40
2
100
AcDbArc
 50
76.33103197395829
 51
210
  0
ARC
  5
37B
100
AcDbEntity
  8
298
  6
ByLayer
 62
  256
370
   -1
100
AcDbCircle
 10
-3.832066234368442
 20
-81.09152286093969
 40
113.3346878464115
100
AcDbArc
 50
73.36834809117369
 51
76.3310319739585
  0
ARC
  5
37C
100
AcDbEntity
  8
298
  6
ByLayer
 62
  256
370
   -1
100
AcDbCircle
 10
28.03389538543406
 20
25.58543438805177
 40
2
100
AcDbArc
 50
329.9999999999999
 51
73.36834809117352
  0
LINE
  5
37D
100
AcDbEntity
  8
298
  6
ByLayer
 62
  256
370
   -1
100
AcDbLine
 10
27.42211222255036
 20
20.52579486672201
 11
29.76594619300294
 21
24.58543438805177
  0
LINE
  5
37E
100
AcDbEntity
  8
298
  6
ByLayer
 62
  256
370
   -1
100
AcDbLine
 10
20.74559575015685
 20
26.08986061447809
 11
23.9580106074126
 21
20.52579486672201
  0
ARC
  5
37F
100
AcDbEntity
  8
298
  6
ByLayer
 62
  256
370
   -1
100
AcDbCircle
 10
25.69006141498148
 20
21.52579486672201
 40
2
100
AcDbArc
 50
210
 51
330.0000000000001
  0
ARC
  5
380
100
AcDbEntity
  8
298
  6
ByLayer
 62
  256
370
   -1
100
AcDbCircle
 10
22.45689990751958
 20
15.92579486672202
 40
2
100
AcDbArc
 50
330.0000000000001
 51
30.00000000000007
  0
ARC
  5
381
100
AcDbEntity
  8
298
  6
ByLayer
 62
  256
370
   -1
100
AcDbCircle
 10
25.69006141498148
 20
10.32579486672202
 40
2
100
AcDbArc
 50
29.99999999999999
 51
150
  0
LINE
  5
382
100
AcDbEntity
  8
298
  6
ByLayer
 62
  256
370
   -1
100
AcDbLine
 10
27.42211222255036
 20
11.32579486672202
 11
30.32375624174416
 21
6.299999999999999
  0
ARC
  5
383
100
AcDbEntity
  8
298
  6
ByLayer
 62
  256
370
   -1
100
AcDbCircle
 10
28.59170543417528
 20
5.300000000000001
 40
2
100
AcDbArc
 50
270
 51
29.99999999999999
  0
LINE
  5
384
100
AcDbEntity
  8
298
  6
ByLayer
 62
  256
370
   -1
100
AcDbLine
 10
22.78841739578768
 20
3.300000000000001
 11
28.59170543417528
 21
3.300000000000001
  0
LINE
  5
385
100
AcDbEntity
  8
298
  6
ByLayer
 62
  256
370
   -1
100
AcDbLine
 10
21.05636658821881
 20
6.300000000000001
 11
23.9580106074126
 21
11.32579486672202
  0
ARC
  5
386
100
AcDbEntity
  8
298
  6
ByLayer
 62
  256
370
   -1
100
AcDbCircle
 10
22.78841739578768
 20
5.300000000000001
 40
2
100
AcDbArc
 50
150
 51
270
  0
ARC
  5
387
100
AcDbEntity
  8
298
  6
ByLayer
 62
  256
370
   -1
100
AcDbCircle
 10
28.92322292244339
 20
15.92579486672201
 40
2
100
AcDbArc
 50
150
 51
210
  0
LINE
  5
388
100
AcDbEntity
  8
298
  6
ByLayer
 62
  256
370
   -1
100
AcDbLine
 10
27.19117211487451
 20
14.92579486672201
 11
30.84337148401481
 21
8.600000000000005
  0
ARC
  5
389
100
AcDbEntity
  8
298
  6
ByLayer
 62
  256
370
   -1
100
AcDbCircle
 10
32.57542229158369
 20
9.600000000000009
 40
2
100
AcDbArc
 50
210
 51
330.0000000000001
  0
ARC
  5
38A
100
AcDbEntity
  8
298
  6
ByLayer
 62
  256
370
   -1
100
AcDbCircle
 10
35.36040051041567
 20
14.42372377298967
 40
2
100
AcDbArc
 50
330.0000000000001
 51
29.99999999999994
  0
LINE
  5
38B
100
AcDbEntity
  8
298
  6
ByLayer
 62
  256
370
   -1
100
AcDbLine
 10
33.44025194884424
 20
21.74951863971167
 11
37.09245131798455
 21
15.42372377298967
  0
LINE
  5
38C
100
AcDbEntity
  8
298
  6
ByLayer
 62
  256
370
   -1
100
AcDbLine
 10
27.19117211487451
 20
16.92579486672201
 11
29.97615033370649
 21
21.74951863971167
  0
ARC
  5
38D
100
AcDbEntity
  8
298
  6
ByLayer
 62
  256
370
   -1
100
AcDbCircle
 10
31.70820114127536
 20
20.74951863971167
 40
2
100
AcDbArc
 50
29.99999999999999
 51
150
  0
ARC
  5
38E
100
AcDbEntity
  8
298
  6
ByLayer
 62
  256
370
   -1
100
AcDbCircle
 10
37.22338246753041
 20
22.39694436968282
 40
2
100
AcDbArc
 50
68.36101955526414
 51
210
  0
LINE
  5
38F
100
AcDbEntity
  8
298
  6
ByLayer
 62
  256
370
   -1
100
AcDbLine
 10
35.49133165996153
 20
21.39694436968282
 11
36.8615112103087
 21
19.02372377298965
  0
ARC
  5
390
100
AcDbEntity
  8
298
  6
ByLayer
 62
  256
370
   -1
100
AcDbCircle
 10
38.59356201787757
 20
20.02372377298965
 40
2
100
AcDbArc
 50
210
 51
329.9999999999999
  0
LINE
  5
391
100
AcDbEntity
  8
298
  6
ByLayer
 62
  256
370
   -1
100
AcDbLine
 10
40.32561282544644
 20
19.02372377298965
 11
41.17208190689853
 21
20.48985122910083
  0
ARC
  5
392
100
AcDbEntity
  8
298
  6
ByLayer
 62
  256
370
   -1
100
AcDbCircle
 10
-3.832066234368442
 20
-81.09152286093969
 40
113.3346878464115
100
AcDbArc
 50
67.128430523389
 51
68.36101955526375
  0
ARC
  5
393
100
AcDbEntity
  8
298
  6
ByLayer
 62
  256
370
   -1
100
AcDbCircle
 10
39.44003109932966
 20
21.48985122910083
 40
2
100
AcDbArc
 50
329.9999999999999
 51
67.1284305233889
  0
ARC
  5
394
100
AcDbEntity
  8
298
  6
ByLayer
 62
  256
370
   -1
100
AcDbCircle
 10
38.59356201787757
 20
8.82372377298967
 40
2
100
AcDbArc
 50
29.99999999999994
 51
150.0000000000001
  0
LINE
  5
395
100
AcDbEntity
  8
298
  6
ByLayer
 62
  256
370
   -1
100
AcDbLine
 10
40.32561282544646
 20
9.82372377298967
 11
42.36003569433192
 21
6.299999999999999
  0
ARC
  5
396
100
AcDbEntity
  8
298
  6
ByLayer
 62
  256
370
   -1
100
AcDbCircle
 10
40.62798488676304
 20
5.300000000000002
 40
2
100
AcDbArc
 50
270
 51
29.99999999999996
  0
LINE
  5
397
100
AcDbEntity
  8
298
  6
ByLayer
 62
  256
370
   -1
100
AcDbLine
 10
36.55913914899212
 20
3.300000000000002
 11
40.62798488676304
 21
3.300000000000002
  0
LINE
  5
398
100
AcDbEntity
  8
298
  6
ByLayer
 62
  256
370
   -1
100
AcDbLine
 10
34.82708834142323
 20
6.300000000000002
 11
36.8615112103087
 21
9.823723772989666
  0
ARC
  5
399
100
AcDbEntity
  8
298
  6
ByLayer
 62
  256
370
   -1
100
AcDbCircle
 10
36.55913914899212
 20
5.300000000000002
 40
2
100
AcDbArc
 50
150.0000000000001
 51
270
  0
ARC
  5
39A
100
AcDbEntity
  8
298
  6
ByLayer
 62
  256
370
   -1
100
AcDbCircle
 10
41.82672352533947
 20
14.42372377298966
 40
2
100
AcDbArc
 50
150
 51
210
  0
LINE
  5
39B
100
AcDbEntity
  8
298
  6
ByLayer
 62
  256
370
   -1
100
AcDbLine
 10
40.0946727177706
 20
15.42372377298966
 11
42.31082222347368
 21
19.26220731403604
  0
ARC
  5
39C
100
AcDbEntity
  8
298
  6
ByLayer
 62
  256
370
   -1
100
AcDbCircle
 10
44.04287303104255
 20
18.26220731403604
 40
2
100
AcDbArc
 50
29.99999999999994
 51
149.9999999999999
  0
LINE
  5
39D
100
AcDbEntity
  8
298
  6
ByLayer
 62
  256
370
   -1
100
AcDbLine
 10
45.77492383861144
 20
19.26220731403604
 11
48.55990205744341
 21
14.43848354104637
  0
ARC
  5
39E
100
AcDbEntity
  8
298
  6
ByLayer
 62
  256
370
   -1
100
AcDbCircle
 10
46.82785124987453
 20
13.43848354104637
 40
2
100
AcDbArc
 50
329.9999999999999
 51
30.00000000000004
  0
LINE
  5
39F
100
AcDbEntity
  8
298
  6
ByLayer
 62
  256
370
   -1
100
AcDbLine
 10
40.0946727177706
 20
13.42372377298966
 11
42.87965093660258
 21
8.599999999999989
  0
LINE
  5
3A0
100
AcDbEntity
  8
298
  6
ByLayer
 62
  256
370
   -1
100
AcDbLine
 10
46.34375255174033
 20
8.599999999999987
 11
48.55990205744341
 21
12.43848354104637
  0
ARC
  5
3A1
100
AcDbEntity
  8
298
  6
ByLayer
 62
  256
370
   -1
100
AcDbCircle
 10
44.61170174417146
 20
9.599999999999985
 40
2
100
AcDbArc
 50
210
 51
330.0000000000001
  0
ARC
  5
3A2
100
AcDbEntity
  8
298
  6
ByLayer
 62
  256
370
   -1
100
AcDbCircle
 10
50.06101275733644
 20
7.838483541046367
 40
2
100
AcDbArc
 50
30.00000000000004
 51
150
  0
LINE
  5
3A3
100
AcDbEntity
  8
298
  6
ByLayer
 62
  256
370
   -1
100
AcDbLine
 10
51.79306356490532
 20
8.838483541046367
 11
53.25865772066187
 21
6.300000000000002
  0
ARC
  5
3A4
100
AcDbEntity
  8
298
  6
ByLayer
 62
  256
370
   -1
100
AcDbCircle
 10
51.526606913093
 20
5.300000000000002
 40
2
100
AcDbArc
 50
270
 51
30.00000000000004
  0
LINE
  5
3A5
100
AcDbEntity
  8
298
  6
ByLayer
 62
  256
370
   -1
100
AcDbLine
 10
48.59541860157989
 20
3.300000000000002
 11
51.526606913093
 21
3.300000000000002
  0
LINE
  5
3A6
100
AcDbEntity
  8
298
  6
ByLayer
 62
  256
370
   -1
100
AcDbLine
 10
46.86336779401101
 20
6.300000000000005
 11
48.32896194976757
 21
8.838483541046367
  0
ARC
  5
3A7
100
AcDbEntity
  8
298
  6
ByLayer
 62
  256
370
   -1
100
AcDbCircle
 10
48.59541860157989
 20
5.300000000000002
 40
2
100
AcDbArc
 50
150
 51
270
  0
ARC
  5
3A8
100
AcDbEntity
  8
298
  6
ByLayer
 62
  256
370
   -1
100
AcDbCircle
 10
53.29417426479836
 20
13.43848354104638
 40
2
100
AcDbArc
 50
150
 51
210
  0
LINE
  5
3A9
100
AcDbEntity
  8
298
  6
ByLayer
 62
  256
370
   -1
100
AcDbLine
 10
51.56212345722948
 20
14.43848354104638
 11
52.00426763934904
 21
15.20429972874844
  0
ARC
  5
3AA
100
AcDbEntity
  8
298
  6
ByLayer
 62
  256
370
   -1
100
AcDbCircle
 10
53.73631844691791
 20
14.20429972874843
 40
2
100
AcDbArc
 50
58.86374741922348
 51
149.9999999999998
  0
LINE
  5
3AB
100
AcDbEntity
  8
298
  6
ByLayer
 62
  256
370
   -1
100
AcDbLine
 10
51.56212345722948
 20
12.43848354104637
 11
54.63054889393687
 21
7.123814785432448
  0
ARC
  5
3AC
100
AcDbEntity
  8
298
  6
ByLayer
 62
  256
370
   -1
100
AcDbCircle
 10
56.36259970150574
 20
8.123814785432447
 40
2
100
AcDbArc
 50
210
 51
330.0000000000001
  0
ARC
  5
3AD
100
AcDbEntity
  8
298
  6
ByLayer
 62
  256
370
   -1
100
AcDbCircle
 10
62.81162419500809
 20
8.093852867434659
 40
2
100
AcDbArc
 50
53.23110973948563
 51
150.0000000000001
  0
ARC
  5
3AE
100
AcDbEntity
  8
298
  6
ByLayer
 62
  256
370
   -1
100
AcDbCircle
 10
-3.832066234368442
 20
-81.09152286093969
 40
113.3346878464115
100
AcDbArc
 50
50.89236161496341
 51
53.23110973948538
  0
ARC
  5
3AF
100
AcDbEntity
  8
298
  6
ByLayer
 62
  256
370
   -1
100
AcDbCircle
 10
66.39554582545894
 20
5.300000000000004
 40
2
100
AcDbArc
 50
270
 51
50.89236161496283
  0
LINE
  5
3B0
100
AcDbEntity
  8
298
  6
ByLayer
 62
  256
370
   -1
100
AcDbLine
 10
61.19859248991849
 20
3.300000000000002
 11
66.39554582545894
 21
3.300000000000002
  0
LINE
  5
3B1
100
AcDbEntity
  8
298
  6
ByLayer
 62
  256
370
   -1
100
AcDbLine
 10
59.46654168234961
 20
6.3
 11
61.07957338743922
 21
9.093852867434656
  0
ARC
  5
3B2
100
AcDbEntity
  8
298
  6
ByLayer
 62
  256
370
   -1
100
AcDbCircle
 10
61.19859248991849
 20
5.300000000000002
 40
2
100
AcDbArc
 50
150
 51
270
  0
LINE
  5
3B3
100
AcDbEntity
  8
298
  6
ByLayer
 62
  256
370
   -1
100
AcDbLine
 10
58.09465050907462
 20
7.123814785432449
 11
59.95474285442422
 21
10.34558923434792
  0
ARC
  5
3B4
100
AcDbEntity
  8
298
  6
ByLayer
 62
  256
370
   -1
100
AcDbCircle
 10
-3.832066234368442
 20
-81.09152286093969
 40
113.3346878464115
100
AcDbArc
 50
56.12580102495303
 51
58.86374741922289
  0
ARC
  5
3B5
100
AcDbEntity
  8
298
  6
ByLayer
 62
  256
370
   -1
100
AcDbCircle
 10
58.22269204685535
 20
11.34558923434791
 40
2
100
AcDbArc
 50
329.9999999999999
 51
56.12580102495321
  0
LINE
  5
3B6
100
AcDbEntity
  8
298
  6
ByLayer
 62
  256
370
   -1
100
AcDbLine
 10
1
 20
16.01602468544625
 11
8.150000000000027
 21
16.01602468544625
  0
ARC
  5
3B7
100
AcDbEntity
  8
298
  6
ByLayer
 62
  256
370
   -1
100
AcDbCircle
 10
8.150000000000029
 20
14.01602468544625
 40
1.999999999999999
100
AcDbArc
 50
5.088887490341627e-14
 51
90.00000000000006
  0
LINE
  5
3B8
100
AcDbEntity
  8
298
  6
ByLayer
 62
  256
370
   -1
100
AcDbLine
 10
10.15000000000003
 20
14.01602468544625
 11
10.15000000000003
 21
5
  0
LINE
  5
3B9
100
AcDbEntity
  8
298
  6
ByLayer
 62
  256
370
   -1
100
AcDbLine
 10
10.15000000000003
 20
5
 11
13.65000000000001
 21
5
  0
LINE
  5
3BA
100
AcDbEntity
  8
298
  6
ByLayer
 62
  256
370
   -1
100
AcDbLine
 10
13.65000000000001
 20
5
 11
13.65
 21
33.05660135074166
  0
ARC
  5
3BB
100
AcDbEntity
  8
298
  6
ByLayer
 62
  256
370
   -1
100
AcDbCircle
 10
14.65000000000001
 20
33.05660135074167
 40
1.000000000000006
100
AcDbArc
 50
80.80288366908191
 51
180.0000000000004
  0
ARC
  5
3BC
100
AcDbEntity
  8
298
  6
ByLayer
 62
  256
370
   -1
100
AcDbCircle
 10
-3.83206623436849
 20
-81.09152286093975
 40
116.6346878464115
100
AcDbArc
 50
46.53194278167457
 51
80.80288366908114
  0
ARC
  5
3BD
100
AcDbEntity
  8
298
  6
ByLayer
 62
  256
370
   -1
100
AcDbCircle
 10
73.65497489029666
 20
0.6540052369508258
 40
3.999999999999998
100
AcDbArc
 50
359.9999999999999
 51
46.53194278167477
  0
LINE
  5
3BE
100
AcDbEntity
  8
298
  6
ByLayer
 62
  256
370
   -1
100
AcDbLine
 10
77.65497489029664
 20
0.6540052369508217
 11
77.65497489029664
 21
-0.9999999999999964
  0
LINE
  5
3BF
100
AcDbEntity
  8
298
  6
ByLayer
 62
  256
370
   -1
100
AcDbLine
 10
1
 20
-1.000000000000001
 11
1
 21
16.01602468544625
  0
LINE
  5
3C0
100
AcDbEntity
  8
298
  6
ByLayer
 62
  256
370
   -1
100
AcDbLine
 10
77.65497489029664
 20
-0.9999999999999964
 11
1
 21
-1.000000000000001
  0
LINE
  5
3C1
100
AcDbEntity
  8
298
  6
ByLayer
 62
  256
370
   -1
100
AcDbLine
 10
19.81602540378444
 20
24.49992368360451
 11
24.18895071508845
 21
16.92579486672203
  0
ARC
  5
3C2
100
AcDbEntity
  8
298
  6
ByLayer
 62
  256
370
   -1
100
AcDbCircle
 10
18.95
 20
23.99992368360451
 40
1
100
AcDbArc
 50
30.00000000000004
 51
180
  0
LINE
  5
3C3
100
AcDbEntity
  8
298
  6
ByLayer
 62
  256
370
   -1
100
AcDbLine
 10
19.81602540378445
 20
7.351666049839536
 11
24.18895071508846
 21
14.92579486672202
  0
LINE
  5
3C4
100
AcDbEntity
  8
298
  6
ByLayer
 62
  256
370
   -1
100
AcDbLine
 10
17.95000000000001
 20
7.851666049839535
 11
17.95
 21
23.99992368360451
  0
ARC
  5
3C5
100
AcDbEntity
  8
298
  6
ByLayer
 62
  256
370
   -1
100
AcDbCircle
 10
18.95000000000001
 20
7.851666049839536
 40
1
100
AcDbArc
 50
180.0000000000001
 51
329.9999999999999
  0
LWPOLYLINE
  5
3C6
100
AcDbEntity
  8
200
  6
ByLayer
 62
  256
370
   -1
100
AcDbPolyline
 90
    4
 70
    1
 43
0
 10
-103.2189452708855
 20
103.6114127433983
 10
115.7779043912974
 20
103.6114127433983
 10
115.7779043912974
 20
-97.72440065570527
 10
-103.2189452708855
 20
-97.72440065570527
  0
LINE
  5
3C7
100
AcDbEntity
  8
299
  6
ByLayer
 62
  256
370
   -1
100
AcDbLine
 10
1
 20
16.01602468544625
 11
8.150000000000027
 21
16.01602468544625
  0
LINE
  5
3C8
100
AcDbEntity
  8
299
  6
ByLayer
 62
  256
370
   -1
100
AcDbLine
 10
1
 20
-1.000000000000001
 11
1
 21
16.01602468544625
  0
ARC
  5
3C9
100
AcDbEntity
  8
299
  6
ByLayer
 62
  256
370
   -1
100
AcDbCircle
 10
8.150000000000029
 20
14.01602468544625
 40
1.999999999999999
100
AcDbArc
 50
5.088887490341627e-14
 51
90.00000000000006
  0
LINE
  5
3CA
100
AcDbEntity
  8
299
  6
ByLayer
 62
  256
370
   -1
100
AcDbLine
 10
10.15000000000003
 20
14.01602468544625
 11
10.15000000000003
 21
5
  0
LINE
  5
3CB
100
AcDbEntity
  8
299
  6
ByLayer
 62
  256
370
   -1
100
AcDbLine
 10
10.15000000000003
 20
5
 11
13.65000000000001
 21
5
  0
LINE
  5
3CC
100
AcDbEntity
  8
299
  6
ByLayer
 62
  256
370
   -1
100
AcDbLine
 10
13.65000000000001
 20
5
 11
13.65
 21
32.69258221763565
  0
ARC
  5
3CD
100
AcDbEntity
  8
299
  6
ByLayer
 62
  256
370
   -1
100
AcDbCircle
 10
14.65
 20
32.69258221763565
 40
1
100
AcDbArc
 50
40.86212639673386
 51
180.0000000000004
  0
LINE
  5
3CE
100
AcDbEntity
  8
299
  6
ByLayer
 62
  256
370
   -1
100
AcDbLine
 10
77.65497489029664
 20
2.543592755126834
 11
77.65497489029664
 21
-0.9999999999999964
  0
ARC
  5
3CF
100
AcDbEntity
  8
299
  6
ByLayer
 62
  256
370
   -1
100
AcDbCircle
 10
80.81166436680523
 20
89.9271074919036
 40
86.48232230088888
100
AcDbArc
 50
220.8621263967316
 51
267.2765872902635
  0
ARC
  5
3D0
100
AcDbEntity
  8
299
  6
ByLayer
 62
  256
370
   -1
100
AcDbCircle
 10
76.65497489029664
 20
2.543592755126834
 40
1
100
AcDbArc
 50
0
 51
87.27658729026444
  0
LINE
  5
3D1
100
AcDbEntity
  8
299
  6
ByLayer
 62
  256
370
   -1
100
AcDbLine
 10
26.88453911761159
 20
-0.9999999999999993
 11
23.43314558224253
 21
-0.9999999999999994
  0
LINE
  5
3D2
100
AcDbEntity
  8
299
  6
ByLayer
 62
  256
370
   -1
100
AcDbLine
 10
23.43314558224253
 20
2
 11
20.52670892087912
 21
2
  0
LINE
  5
3D3
100
AcDbEntity
  8
299
  6
ByLayer
 62
  256
370
   -1
100
AcDbLine
 10
16.34870622016921
 20
-0.9999999999999998
 11
1
 21
-1.000000000000001
  0
LINE
  5
3D4
100
AcDbEntity
  8
299
  6
ByLayer
 62
  256
370
   -1
100
AcDbLine
 10
77.65497489029664
 20
-0.9999999999999964
 11
73.38752569942622
 21
-0.9999999999999967
  0
LINE
  5
3D5
100
AcDbEntity
  8
299
  6
ByLayer
 62
  256
370
   -1
100
AcDbLine
 10
73.38752569942622
 20
-0.9999999999999967
 11
73.38752569942622
 21
2.000000000000004
  0
LINE
  5
3D6
100
AcDbEntity
  8
299
  6
ByLayer
 62
  256
370
   -1
100
AcDbLine
 10
73.38752569942622
 20
2.000000000000004
 11
70.48108903806281
 21
2.000000000000003
  0
LINE
  5
3D7
100
AcDbEntity
  8
299
  6
ByLayer
 62
  256
370
   -1
100
AcDbLine
 10
70.48108903806281
 20
-0.9999999999999968
 11
70.48108903806281
 21
2.000000000000003
  0
LINE
  5
3D8
100
AcDbEntity
  8
299
  6
ByLayer
 62
  256
370
   -1
100
AcDbLine
 10
70.48108903806281
 20
-0.9999999999999968
 11
66.30308633735291
 21
-0.999999999999997
  0
LINE
  5
3D9
100
AcDbEntity
  8
299
  6
ByLayer
 62
  256
370
   -1
100
AcDbLine
 10
66.30308633735291
 20
-0.999999999999997
 11
66.30308633735291
 21
2.000000000000003
  0
LINE
  5
3DA
100
AcDbEntity
  8
299
  6
ByLayer
 62
  256
370
   -1
100
AcDbLine
 10
66.30308633735291
 20
2.000000000000003
 11
62.30673592797821
 21
2.000000000000002
  0
LINE
  5
3DB
100
AcDbEntity
  8
299
  6
ByLayer
 62
  256
370
   -1
100
AcDbLine
 10
62.30673592797822
 20
-0.9999999999999972
 11
62.30673592797821
 21
2.000000000000002
  0
LINE
  5
3DC
100
AcDbEntity
  8
299
  6
ByLayer
 62
  256
370
   -1
100
AcDbLine
 10
62.30673592797822
 20
-0.9999999999999972
 11
56.8571671879218
 21
-0.9999999999999976
  0
LINE
  5
3DD
100
AcDbEntity
  8
299
  6
ByLayer
 62
  256
370
   -1
100
AcDbLine
 10
56.8571671879218
 20
-0.9999999999999976
 11
56.85716718792181
 21
2.000000000000002
  0
LINE
  5
3DE
100
AcDbEntity
  8
299
  6
ByLayer
 62
  256
370
   -1
100
AcDbLine
 10
56.85716718792181
 20
2.000000000000002
 11
51.77090303053583
 21
2.000000000000002
  0
LINE
  5
3DF
100
AcDbEntity
  8
299
  6
ByLayer
 62
  256
370
   -1
100
AcDbLine
 10
51.77090303053583
 20
-0.999999999999998
 11
51.77090303053583
 21
2.000000000000002
  0
LINE
  5
3E0
100
AcDbEntity
  8
299
  6
ByLayer
 62
  256
370
   -1
100
AcDbLine
 10
51.77090303053583
 20
-0.999999999999998
 11
47.22959574715549
 21
-0.9999999999999982
  0
LINE
  5
3E1
100
AcDbEntity
  8
299
  6
ByLayer
 62
  256
370
   -1
100
AcDbLine
 10
47.22959574715549
 20
-0.9999999999999982
 11
47.22959574715549
 21
2.000000000000002
  0
LINE
  5
3E2
100
AcDbEntity
  8
299
  6
ByLayer
 62
  256
370
   -1
100
AcDbLine
 10
47.22959574715549
 20
2.000000000000002
 11
42.14333158976952
 21
2.000000000000001
  0
LINE
  5
3E3
100
AcDbEntity
  8
299
  6
ByLayer
 62
  256
370
   -1
100
AcDbLine
 10
42.14333158976952
 20
-0.9999999999999987
 11
42.14333158976952
 21
2.000000000000001
  0
LINE
  5
3E4
100
AcDbEntity
  8
299
  6
ByLayer
 62
  256
370
   -1
100
AcDbLine
 10
42.14333158976952
 20
-0.9999999999999987
 11
37.42037201505396
 21
-0.9999999999999987
  0
LINE
  5
3E5
100
AcDbEntity
  8
299
  6
ByLayer
 62
  256
370
   -1
100
AcDbLine
 10
37.42037201505396
 20
-0.9999999999999987
 11
37.42037201505396
 21
2.000000000000001
  0
LINE
  5
3E6
100
AcDbEntity
  8
299
  6
ByLayer
 62
  256
370
   -1
100
AcDbLine
 10
37.42037201505396
 20
2.000000000000001
 11
34.15063077102013
 21
2.000000000000001
  0
LINE
  5
3E7
100
AcDbEntity
  8
299
  6
ByLayer
 62
  256
370
   -1
100
AcDbLine
 10
34.15063077102013
 20
-0.999999999999999
 11
34.15063077102013
 21
2.000000000000001
  0
LINE
  5
3E8
100
AcDbEntity
  8
299
  6
ByLayer
 62
  256
370
   -1
100
AcDbLine
 10
34.15063077102013
 20
-0.999999999999999
 11
30.69923723565107
 21
-0.9999999999999991
  0
LINE
  5
3E9
100
AcDbEntity
  8
299
  6
ByLayer
 62
  256
370
   -1
100
AcDbLine
 10
30.69923723565107
 20
-0.9999999999999991
 11
30.69923723565107
 21
2
  0
LINE
  5
3EA
100
AcDbEntity
  8
299
  6
ByLayer
 62
  256
370
   -1
100
AcDbLine
 10
30.69923723565107
 20
2
 11
26.88453911761159
 21
2
  0
LINE
  5
3EB
100
AcDbEntity
  8
299
  6
ByLayer
 62
  256
370
   -1
100
AcDbLine
 10
26.88453911761159
 20
-0.9999999999999993
 11
26.88453911761159
 21
2
  0
LINE
  5
3EC
100
AcDbEntity
  8
299
  6
ByLayer
 62
  256
370
   -1
100
AcDbLine
 10
23.43314558224253
 20
-0.9999999999999994
 11
23.43314558224253
 21
2
  0
LINE
  5
3ED
100
AcDbEntity
  8
299
  6
ByLayer
 62
  256
370
   -1
100
AcDbLine
 10
20.52670892087912
 20
-0.9999999999999996
 11
16.34870622016921
 21
-0.9999999999999998
  0
LINE
  5
3EE
100
AcDbEntity
  8
299
  6
ByLayer
 62
  256
370
   -1
100
AcDbLine
 10
20.52670892087912
 20
-0.9999999999999996
 11
20.52670892087912
 21
2
  0
LINE
  5
3EF
100
AcDbEntity
  8
298
  6
ByLayer
 62
  256
370
   -1
100
AcDbLine
 10
34.30747309915257
 20
8.60000000000001
 11
37.09245131798455
 21
13.42372377298967
  0
ENDSEC
  0
SECTION
  2
OBJECTS
  0
DICTIONARY
  5
C
330
0
100
AcDbDictionary
281
    1
  3
ACAD_GROUP
350
D
  0
DICTIONARY
  5
D
330
C
100
AcDbDictionary
281
    1
  0
ENDSEC
  0
EOF
