999
dxflib 2.0.4.8
  0
SECTION
  2
HEADER
  9
$ACADVER
  1
AC1015
  9
$HANDSEED
  5
FFFF
  9
$DIMASZ
 40
0.1
  9
$DIMGAP
 40
0.025
  9
$DIMEXO
 40
0.025
  9
$INSUNITS
 70
1
  9
$DIMTXT
 40
0.1
  9
$PLIMMAX
 10
8.2677165354330722
 20
11.6929133858267722
  9
$PLIMMIN
 10
0.0
 20
0.0
  9
$DIMEXE
 40
0.05
  0
ENDSEC
  0
SECTION
  2
TABLES
  0
TABLE
  2
VPORT
  5
8
100
AcDbSymbolTable
 70
1
  0
VPORT
  5
30
100
AcDbSymbolTableRecord
100
AcDbViewportTableRecord
  2
*Active
 70
0
 10
0.0
 20
0.0
 11
1.0
 21
1.0
 12
286.3055555555554861
 22
148.5
 13
0.0
 23
0.0
 14
10.0
 24
10.0
 15
10.0
 25
10.0
 16
0.0
 26
0.0
 36
1.0
 17
0.0
 27
0.0
 37
0.0
 40
297.0
 41
1.92798353909465
 42
50.0
 43
0.0
 44
0.0
 50
0.0
 51
0.0
 71
0
 72
100
 73
1
 74
3
 75
1
 76
1
 77
0
 78
0
281
0
 65
1
110
0.0
120
0.0
130
0.0
111
1.0
121
0.0
131
0.0
112
0.0
122
1.0
132
0.0
 79
0
146
0.0
  0
ENDTAB
  0
TABLE
  2
LTYPE
  5
5
100
AcDbSymbolTable
 70
21
  0
LTYPE
  5
14
100
AcDbSymbolTableRecord
100
AcDbLinetypeTableRecord
  2
ByBlock
 70
0
  3

 72
65
 73
0
 40
0.0
  0
LTYPE
  5
15
100
AcDbSymbolTableRecord
100
AcDbLinetypeTableRecord
  2
ByLayer
 70
0
  3

 72
65
 73
0
 40
0.0
  0
LTYPE
  5
16
100
AcDbSymbolTableRecord
100
AcDbLinetypeTableRecord
  2
CONTINUOUS
 70
0
  3
Solid line
 72
65
 73
0
 40
0.0
  0
LTYPE
  5
31
100
AcDbSymbolTableRecord
100
AcDbLinetypeTableRecord
  2
DOT
 70
0
  3
Dot . . . . . . . . . . . . . . . . . . . . . .
 72
65
 73
2
 40
6.3499999999999996
 49
0.0
 74
0
 49
-6.3499999999999996
 74
0
  0
LTYPE
  5
32
100
AcDbSymbolTableRecord
100
AcDbLinetypeTableRecord
  2
DOT2
 70
0
  3
Dot (.5x) .....................................
 72
65
 73
2
 40
3.1749999999999998
 49
0.0
 74
0
 49
-3.1749999999999998
 74
0
  0
LTYPE
  5
33
100
AcDbSymbolTableRecord
100
AcDbLinetypeTableRecord
  2
DOTX2
 70
0
  3
Dot (2x) .  .  .  .  .  .  .  .  .  .  .  .  .
 72
65
 73
2
 40
12.6999999999999993
 49
0.0
 74
0
 49
-12.6999999999999993
 74
0
  0
LTYPE
  5
34
100
AcDbSymbolTableRecord
100
AcDbLinetypeTableRecord
  2
DASHED
 70
0
  3
Dashed __ __ __ __ __ __ __ __ __ __ __ __ __ _
 72
65
 73
2
 40
19.0500000000000007
 49
12.6999999999999993
 74
0
 49
-6.3499999999999996
 74
0
  0
LTYPE
  5
35
100
AcDbSymbolTableRecord
100
AcDbLinetypeTableRecord
  2
DASHED2
 70
0
  3
Dashed (.5x) _ _ _ _ _ _ _ _ _ _ _ _ _ _ _ _ _
 72
65
 73
2
 40
9.5250000000000004
 49
6.3499999999999996
 74
0
 49
-3.1749999999999998
 74
0
  0
LTYPE
  5
36
100
AcDbSymbolTableRecord
100
AcDbLinetypeTableRecord
  2
DASHEDX2
 70
0
  3
Dashed (2x) ____  ____  ____  ____  ____  ___
 72
65
 73
2
 40
38.1000000000000014
 49
25.3999999999999986
 74
0
 49
-12.6999999999999993
 74
0
  0
LTYPE
  5
37
100
AcDbSymbolTableRecord
100
AcDbLinetypeTableRecord
  2
DASHDOT
 70
0
  3
Dash dot __ . __ . __ . __ . __ . __ . __ . __
 72
65
 73
4
 40
25.3999999999999986
 49
12.6999999999999993
 74
0
 49
-6.3499999999999996
 74
0
 49
0.0
 74
0
 49
-6.3499999999999996
 74
0
  0
LTYPE
  5
38
100
AcDbSymbolTableRecord
100
AcDbLinetypeTableRecord
  2
DASHDOT2
 70
0
  3
Dash dot (.5x) _._._._._._._._._._._._._._._.
 72
65
 73
4
 40
12.6999999999999993
 49
6.3499999999999996
 74
0
 49
-3.1749999999999998
 74
0
 49
0.0
 74
0
 49
-3.1749999999999998
 74
0
  0
LTYPE
  5
39
100
AcDbSymbolTableRecord
100
AcDbLinetypeTableRecord
  2
DASHDOTX2
 70
0
  3
Dash dot (2x) ____  .  ____  .  ____  .  ___
 72
65
 73
4
 40
50.7999999999999972
 49
25.3999999999999986
 74
0
 49
-12.6999999999999993
 74
0
 49
0.0
 74
0
 49
-12.6999999999999993
 74
0
  0
LTYPE
  5
3A
100
AcDbSymbolTableRecord
100
AcDbLinetypeTableRecord
  2
DIVIDE
 70
0
  3
Divide ____ . . ____ . . ____ . . ____ . . ____
 72
65
 73
6
 40
31.75
 49
12.6999999999999993
 74
0
 49
-6.3499999999999996
 74
0
 49
0.0
 74
0
 49
-6.3499999999999996
 74
0
 49
0.0
 74
0
 49
-6.3499999999999996
 74
0
  0
LTYPE
  5
3B
100
AcDbSymbolTableRecord
100
AcDbLinetypeTableRecord
  2
DIVIDE2
 70
0
  3
Divide (.5x) __..__..__..__..__..__..__..__.._
 72
65
 73
6
 40
15.875
 49
6.3499999999999996
 74
0
 49
-3.1749999999999998
 74
0
 49
0.0
 74
0
 49
-3.1749999999999998
 74
0
 49
0.0
 74
0
 49
-3.1749999999999998
 74
0
  0
LTYPE
  5
3C
100
AcDbSymbolTableRecord
100
AcDbLinetypeTableRecord
  2
DIVIDEX2
 70
0
  3
Divide (2x) ________  .  .  ________  .  .  _
 72
65
 73
6
 40
63.5
 49
25.3999999999999986
 74
0
 49
-12.6999999999999993
 74
0
 49
0.0
 74
0
 49
-12.6999999999999993
 74
0
 49
0.0
 74
0
 49
-12.6999999999999993
 74
0
  0
LTYPE
  5
3D
100
AcDbSymbolTableRecord
100
AcDbLinetypeTableRecord
  2
CENTER
 70
0
  3
Center ____ _ ____ _ ____ _ ____ _ ____ _ ____
 72
65
 73
4
 40
50.7999999999999972
 49
31.75
 74
0
 49
-6.3499999999999996
 74
0
 49
6.3499999999999996
 74
0
 49
-6.3499999999999996
 74
0
  0
LTYPE
  5
3E
100
AcDbSymbolTableRecord
100
AcDbLinetypeTableRecord
  2
CENTER2
 70
0
  3
Center (.5x) ___ _ ___ _ ___ _ ___ _ ___ _ ___
 72
65
 73
4
 40
28.5749999999999993
 49
19.0500000000000007
 74
0
 49
-3.1749999999999998
 74
0
 49
3.1749999999999998
 74
0
 49
-3.1749999999999998
 74
0
  0
LTYPE
  5
3F
100
AcDbSymbolTableRecord
100
AcDbLinetypeTableRecord
  2
CENTERX2
 70
0
  3
Center (2x) ________  __  ________  __  _____
 72
65
 73
4
 40
101.5999999999999943
 49
63.5
 74
0
 49
-12.6999999999999993
 74
0
 49
12.6999999999999993
 74
0
 49
-12.6999999999999993
 74
0
  0
LTYPE
  5
40
100
AcDbSymbolTableRecord
100
AcDbLinetypeTableRecord
  2
BORDER
 70
0
  3
Border __ __ . __ __ . __ __ . __ __ . __ __ .
 72
65
 73
6
 40
44.4500000000000028
 49
12.6999999999999993
 74
0
 49
-6.3499999999999996
 74
0
 49
12.6999999999999993
 74
0
 49
-6.3499999999999996
 74
0
 49
0.0
 74
0
 49
-6.3499999999999996
 74
0
  0
LTYPE
  5
41
100
AcDbSymbolTableRecord
100
AcDbLinetypeTableRecord
  2
BORDER2
 70
0
  3
Border (.5x) __.__.__.__.__.__.__.__.__.__.__.
 72
65
 73
6
 40
22.2250000000000014
 49
6.3499999999999996
 74
0
 49
-3.1749999999999998
 74
0
 49
6.3499999999999996
 74
0
 49
-3.1749999999999998
 74
0
 49
0.0
 74
0
 49
-3.1749999999999998
 74
0
  0
LTYPE
  5
42
100
AcDbSymbolTableRecord
100
AcDbLinetypeTableRecord
  2
BORDERX2
 70
0
  3
Border (2x) ____  ____  .  ____  ____  .  ___
 72
65
 73
6
 40
88.9000000000000057
 49
25.3999999999999986
 74
0
 49
-12.6999999999999993
 74
0
 49
25.3999999999999986
 74
0
 49
-12.6999999999999993
 74
0
 49
0.0
 74
0
 49
-12.6999999999999993
 74
0
  0
ENDTAB
  0
TABLE
  2
LAYER
  5
2
100
AcDbSymbolTable
 70
5
  0
LAYER
  5
10
100
AcDbSymbolTableRecord
100
AcDbLayerTableRecord
  2
0
 70
0
 62
7
  6
CONTINUOUS
370
0
390
F
  0
LAYER
  5
43
100
AcDbSymbolTableRecord
100
AcDbLayerTableRecord
  2
coils
 70
0
 62
5
  6
CONTINUOUS
370
0
390
F
  0
LAYER
  5
44
100
AcDbSymbolTableRecord
100
AcDbLayerTableRecord
  2
exhaust
 70
0
 62
20
  6
CONTINUOUS
370
0
390
F
  0
LAYER
  5
45
100
AcDbSymbolTableRecord
100
AcDbLayerTableRecord
  2
intake
 70
0
 62
7
  6
CONTINUOUS
370
0
390
F
  0
LAYER
  5
46
100
AcDbSymbolTableRecord
100
AcDbLayerTableRecord
  2
firebox
 70
0
 62
1
  6
CONTINUOUS
370
0
390
F
  0
ENDTAB
  0
TABLE
  2
STYLE
  5
3
100
AcDbSymbolTable
 70
1
  0
STYLE
  5
11
100
AcDbSymbolTableRecord
100
AcDbTextStyleTableRecord
  2
Standard
 70
0
 40
0.0
 41
0.75
 50
0.0
 71
0
 42
2.5
  3
txt
  4

  0
ENDTAB
  0
TABLE
  2
VIEW
  5
6
100
AcDbSymbolTable
 70
0
  0
ENDTAB
  0
TABLE
  2
UCS
  5
7
100
AcDbSymbolTable
 70
0
  0
ENDTAB
  0
TABLE
  2
APPID
  5
9
100
AcDbSymbolTable
 70
1
  0
APPID
  5
12
100
AcDbSymbolTableRecord
100
AcDbRegAppTableRecord
  2
ACAD
 70
0
  0
ENDTAB
  0
TABLE
  2
DIMSTYLE
  5
A
100
AcDbSymbolTable
 70
1
100
AcDbDimStyleTable
 71
0
  0
DIMSTYLE
105
27
100
AcDbSymbolTableRecord
100
AcDbDimStyleTableRecord
  2
Standard
 41
0.1
 42
0.025
 43
3.75
 44
0.05
 70
0
 73
0
 74
0
 77
1
 78
8
140
0.1
141
2.5
143
0.03937007874016
147
0.025
171
3
172
1
271
2
272
2
274
3
278
44
283
0
284
8
340
11
  0
ENDTAB
  0
TABLE
  2
BLOCK_RECORD
  5
1
100
AcDbSymbolTable
 70
1
  0
BLOCK_RECORD
  5
1F
100
AcDbSymbolTableRecord
100
AcDbBlockTableRecord
  2
*Model_Space
340
22
  0
BLOCK_RECORD
  5
1B
100
AcDbSymbolTableRecord
100
AcDbBlockTableRecord
  2
*Paper_Space
340
1E
  0
BLOCK_RECORD
  5
23
100
AcDbSymbolTableRecord
100
AcDbBlockTableRecord
  2
*Paper_Space0
340
26
  0
ENDTAB
  0
ENDSEC
  0
SECTION
  2
BLOCKS
  0
BLOCK
  5
20
100
AcDbEntity
  8
0
100
AcDbBlockBegin
  2
*Model_Space
 70
0
 10
0.0
 20
0.0
 30
0.0
  3
*Model_Space
  1

  0
ENDBLK
  5
21
100
AcDbEntity
  8
0
100
AcDbBlockEnd
  0
BLOCK
  5
1C
100
AcDbEntity
 67
1
  8
0
100
AcDbBlockBegin
  2
*Paper_Space
 70
0
 10
0.0
 20
0.0
 30
0.0
  3
*Paper_Space
  1

  0
ENDBLK
  5
1D
100
AcDbEntity
 67
1
  8
0
100
AcDbBlockEnd
  0
BLOCK
  5
24
100
AcDbEntity
  8
0
100
AcDbBlockBegin
  2
*Paper_Space0
 70
0
 10
0.0
 20
0.0
 30
0.0
  3
*Paper_Space0
  1

  0
ENDBLK
  5
25
100
AcDbEntity
  8
0
100
AcDbBlockEnd
  0
ENDSEC
  0
SECTION
  2
ENTITIES
  0
LINE
  5
47
100
AcDbEntity
100
AcDbLine
  8
exhaust
 62
256
370
-1
  6
ByLayer
 10
0.0
 20
-7.0
 30
0.0
 11
0.0
 21
0.0
 31
0.0
  0
CIRCLE
  5
48
100
AcDbEntity
100
AcDbCircle
  8
coils
 62
256
370
-1
  6
ByLayer
 10
0.0625000833333333
 20
-0.0416666666666667
 30
0.0
 40
0.0208333333333333
  0
CIRCLE
  5
49
100
AcDbEntity
100
AcDbCircle
  8
coils
 62
256
370
-1
  6
ByLayer
 10
0.0625000833333333
 20
-0.125
 30
0.0
 40
0.0208333333333333
  0
CIRCLE
  5
4A
100
AcDbEntity
100
AcDbCircle
  8
coils
 62
256
370
-1
  6
ByLayer
 10
0.0625000833333333
 20
-0.2083333333333333
 30
0.0
 40
0.0208333333333333
  0
CIRCLE
  5
4B
100
AcDbEntity
100
AcDbCircle
  8
coils
 62
256
370
-1
  6
ByLayer
 10
0.0625000833333333
 20
-0.2916666666666667
 30
0.0
 40
0.0208333333333333
  0
CIRCLE
  5
4C
100
AcDbEntity
100
AcDbCircle
  8
coils
 62
256
370
-1
  6
ByLayer
 10
0.0625000833333333
 20
-0.375
 30
0.0
 40
0.0208333333333333
  0
CIRCLE
  5
4D
100
AcDbEntity
100
AcDbCircle
  8
coils
 62
256
370
-1
  6
ByLayer
 10
0.0625000833333333
 20
-0.4583333333333333
 30
0.0
 40
0.0208333333333333
  0
CIRCLE
  5
4E
100
AcDbEntity
100
AcDbCircle
  8
coils
 62
256
370
-1
  6
ByLayer
 10
0.0625000833333333
 20
-0.5416666666666666
 30
0.0
 40
0.0208333333333333
  0
CIRCLE
  5
4F
100
AcDbEntity
100
AcDbCircle
  8
coils
 62
256
370
-1
  6
ByLayer
 10
0.0625000833333333
 20
-0.6249999999999999
 30
0.0
 40
0.0208333333333333
  0
CIRCLE
  5
50
100
AcDbEntity
100
AcDbCircle
  8
coils
 62
256
370
-1
  6
ByLayer
 10
0.0625000833333333
 20
-0.7083333333333333
 30
0.0
 40
0.0208333333333333
  0
CIRCLE
  5
51
100
AcDbEntity
100
AcDbCircle
  8
coils
 62
256
370
-1
  6
ByLayer
 10
0.0625000833333333
 20
-0.7916666666666666
 30
0.0
 40
0.0208333333333333
  0
CIRCLE
  5
52
100
AcDbEntity
100
AcDbCircle
  8
coils
 62
256
370
-1
  6
ByLayer
 10
0.0625000833333333
 20
-0.8749999999999999
 30
0.0
 40
0.0208333333333333
  0
CIRCLE
  5
53
100
AcDbEntity
100
AcDbCircle
  8
coils
 62
256
370
-1
  6
ByLayer
 10
0.0625000833333333
 20
-0.9583333333333333
 30
0.0
 40
0.0208333333333333
  0
CIRCLE
  5
54
100
AcDbEntity
100
AcDbCircle
  8
coils
 62
256
370
-1
  6
ByLayer
 10
0.0625000833333333
 20
-1.0416666666666667
 30
0.0
 40
0.0208333333333333
  0
CIRCLE
  5
55
100
AcDbEntity
100
AcDbCircle
  8
coils
 62
256
370
-1
  6
ByLayer
 10
0.0625000833333333
 20
-1.125
 30
0.0
 40
0.0208333333333333
  0
CIRCLE
  5
56
100
AcDbEntity
100
AcDbCircle
  8
coils
 62
256
370
-1
  6
ByLayer
 10
0.0625000833333333
 20
-1.2083333333333333
 30
0.0
 40
0.0208333333333333
  0
CIRCLE
  5
57
100
AcDbEntity
100
AcDbCircle
  8
coils
 62
256
370
-1
  6
ByLayer
 10
0.0625000833333333
 20
-1.2916666666666667
 30
0.0
 40
0.0208333333333333
  0
CIRCLE
  5
58
100
AcDbEntity
100
AcDbCircle
  8
coils
 62
256
370
-1
  6
ByLayer
 10
0.0625000833333333
 20
-1.375
 30
0.0
 40
0.0208333333333333
  0
CIRCLE
  5
59
100
AcDbEntity
100
AcDbCircle
  8
coils
 62
256
370
-1
  6
ByLayer
 10
0.0625000833333333
 20
-1.4583333333333333
 30
0.0
 40
0.0208333333333333
  0
CIRCLE
  5
5A
100
AcDbEntity
100
AcDbCircle
  8
coils
 62
256
370
-1
  6
ByLayer
 10
0.0625000833333333
 20
-1.5416666666666667
 30
0.0
 40
0.0208333333333333
  0
CIRCLE
  5
5B
100
AcDbEntity
100
AcDbCircle
  8
coils
 62
256
370
-1
  6
ByLayer
 10
0.0625000833333333
 20
-1.625
 30
0.0
 40
0.0208333333333333
  0
CIRCLE
  5
5C
100
AcDbEntity
100
AcDbCircle
  8
coils
 62
256
370
-1
  6
ByLayer
 10
0.0625000833333333
 20
-1.7083333333333333
 30
0.0
 40
0.0208333333333333
  0
CIRCLE
  5
5D
100
AcDbEntity
100
AcDbCircle
  8
coils
 62
256
370
-1
  6
ByLayer
 10
0.0625000833333333
 20
-1.7916666666666665
 30
0.0
 40
0.0208333333333333
  0
CIRCLE
  5
5E
100
AcDbEntity
100
AcDbCircle
  8
coils
 62
256
370
-1
  6
ByLayer
 10
0.0625000833333333
 20
-1.875
 30
0.0
 40
0.0208333333333333
  0
CIRCLE
  5
5F
100
AcDbEntity
100
AcDbCircle
  8
coils
 62
256
370
-1
  6
ByLayer
 10
0.0625000833333333
 20
-1.9583333333333333
 30
0.0
 40
0.0208333333333333
  0
CIRCLE
  5
60
100
AcDbEntity
100
AcDbCircle
  8
coils
 62
256
370
-1
  6
ByLayer
 10
0.0625000833333333
 20
-2.0416666666666665
 30
0.0
 40
0.0208333333333333
  0
CIRCLE
  5
61
100
AcDbEntity
100
AcDbCircle
  8
coils
 62
256
370
-1
  6
ByLayer
 10
0.0625000833333333
 20
-2.125
 30
0.0
 40
0.0208333333333333
  0
CIRCLE
  5
62
100
AcDbEntity
100
AcDbCircle
  8
coils
 62
256
370
-1
  6
ByLayer
 10
0.0625000833333333
 20
-2.208333333333333
 30
0.0
 40
0.0208333333333333
  0
CIRCLE
  5
63
100
AcDbEntity
100
AcDbCircle
  8
coils
 62
256
370
-1
  6
ByLayer
 10
0.0625000833333333
 20
-2.2916666666666665
 30
0.0
 40
0.0208333333333333
  0
CIRCLE
  5
64
100
AcDbEntity
100
AcDbCircle
  8
coils
 62
256
370
-1
  6
ByLayer
 10
0.0625000833333333
 20
-2.375
 30
0.0
 40
0.0208333333333333
  0
CIRCLE
  5
65
100
AcDbEntity
100
AcDbCircle
  8
coils
 62
256
370
-1
  6
ByLayer
 10
0.0625000833333333
 20
-2.458333333333333
 30
0.0
 40
0.0208333333333333
  0
CIRCLE
  5
66
100
AcDbEntity
100
AcDbCircle
  8
coils
 62
256
370
-1
  6
ByLayer
 10
0.0625000833333333
 20
-2.5416666666666665
 30
0.0
 40
0.0208333333333333
  0
CIRCLE
  5
67
100
AcDbEntity
100
AcDbCircle
  8
coils
 62
256
370
-1
  6
ByLayer
 10
0.0625000833333333
 20
-2.625
 30
0.0
 40
0.0208333333333333
  0
CIRCLE
  5
68
100
AcDbEntity
100
AcDbCircle
  8
coils
 62
256
370
-1
  6
ByLayer
 10
0.0625000833333333
 20
-2.708333333333333
 30
0.0
 40
0.0208333333333333
  0
CIRCLE
  5
69
100
AcDbEntity
100
AcDbCircle
  8
coils
 62
256
370
-1
  6
ByLayer
 10
0.0625000833333333
 20
-2.7916666666666665
 30
0.0
 40
0.0208333333333333
  0
CIRCLE
  5
6A
100
AcDbEntity
100
AcDbCircle
  8
coils
 62
256
370
-1
  6
ByLayer
 10
0.0625000833333333
 20
-2.875
 30
0.0
 40
0.0208333333333333
  0
CIRCLE
  5
6B
100
AcDbEntity
100
AcDbCircle
  8
coils
 62
256
370
-1
  6
ByLayer
 10
0.0625000833333333
 20
-2.958333333333333
 30
0.0
 40
0.0208333333333333
  0
CIRCLE
  5
6C
100
AcDbEntity
100
AcDbCircle
  8
coils
 62
256
370
-1
  6
ByLayer
 10
0.0625000833333333
 20
-3.0416666666666665
 30
0.0
 40
0.0208333333333333
  0
CIRCLE
  5
6D
100
AcDbEntity
100
AcDbCircle
  8
coils
 62
256
370
-1
  6
ByLayer
 10
0.0625000833333333
 20
-3.125
 30
0.0
 40
0.0208333333333333
  0
CIRCLE
  5
6E
100
AcDbEntity
100
AcDbCircle
  8
coils
 62
256
370
-1
  6
ByLayer
 10
0.0625000833333333
 20
-3.208333333333333
 30
0.0
 40
0.0208333333333333
  0
CIRCLE
  5
6F
100
AcDbEntity
100
AcDbCircle
  8
coils
 62
256
370
-1
  6
ByLayer
 10
0.0625000833333333
 20
-3.2916666666666665
 30
0.0
 40
0.0208333333333333
  0
CIRCLE
  5
70
100
AcDbEntity
100
AcDbCircle
  8
coils
 62
256
370
-1
  6
ByLayer
 10
0.0625000833333333
 20
-3.375
 30
0.0
 40
0.0208333333333333
  0
CIRCLE
  5
71
100
AcDbEntity
100
AcDbCircle
  8
coils
 62
256
370
-1
  6
ByLayer
 10
0.0625000833333333
 20
-3.458333333333333
 30
0.0
 40
0.0208333333333333
  0
CIRCLE
  5
72
100
AcDbEntity
100
AcDbCircle
  8
coils
 62
256
370
-1
  6
ByLayer
 10
0.0625000833333333
 20
-3.5416666666666665
 30
0.0
 40
0.0208333333333333
  0
CIRCLE
  5
73
100
AcDbEntity
100
AcDbCircle
  8
coils
 62
256
370
-1
  6
ByLayer
 10
0.0625000833333333
 20
-3.625
 30
0.0
 40
0.0208333333333333
  0
CIRCLE
  5
74
100
AcDbEntity
100
AcDbCircle
  8
coils
 62
256
370
-1
  6
ByLayer
 10
0.0625000833333333
 20
-3.708333333333333
 30
0.0
 40
0.0208333333333333
  0
CIRCLE
  5
75
100
AcDbEntity
100
AcDbCircle
  8
coils
 62
256
370
-1
  6
ByLayer
 10
0.0625000833333333
 20
-3.7916666666666661
 30
0.0
 40
0.0208333333333333
  0
CIRCLE
  5
76
100
AcDbEntity
100
AcDbCircle
  8
coils
 62
256
370
-1
  6
ByLayer
 10
0.0625000833333333
 20
-3.875
 30
0.0
 40
0.0208333333333333
  0
CIRCLE
  5
77
100
AcDbEntity
100
AcDbCircle
  8
coils
 62
256
370
-1
  6
ByLayer
 10
0.0625000833333333
 20
-3.958333333333333
 30
0.0
 40
0.0208333333333333
  0
CIRCLE
  5
78
100
AcDbEntity
100
AcDbCircle
  8
coils
 62
256
370
-1
  6
ByLayer
 10
0.0625000833333333
 20
-4.0416666666666661
 30
0.0
 40
0.0208333333333333
  0
CIRCLE
  5
79
100
AcDbEntity
100
AcDbCircle
  8
coils
 62
256
370
-1
  6
ByLayer
 10
0.0625000833333333
 20
-4.125
 30
0.0
 40
0.0208333333333333
  0
CIRCLE
  5
7A
100
AcDbEntity
100
AcDbCircle
  8
coils
 62
256
370
-1
  6
ByLayer
 10
0.0625000833333333
 20
-4.208333333333333
 30
0.0
 40
0.0208333333333333
  0
CIRCLE
  5
7B
100
AcDbEntity
100
AcDbCircle
  8
coils
 62
256
370
-1
  6
ByLayer
 10
0.0625000833333333
 20
-4.2916666666666661
 30
0.0
 40
0.0208333333333333
  0
CIRCLE
  5
7C
100
AcDbEntity
100
AcDbCircle
  8
coils
 62
256
370
-1
  6
ByLayer
 10
0.0625000833333333
 20
-4.375
 30
0.0
 40
0.0208333333333333
  0
CIRCLE
  5
7D
100
AcDbEntity
100
AcDbCircle
  8
coils
 62
256
370
-1
  6
ByLayer
 10
0.0625000833333333
 20
-4.458333333333333
 30
0.0
 40
0.0208333333333333
  0
CIRCLE
  5
7E
100
AcDbEntity
100
AcDbCircle
  8
coils
 62
256
370
-1
  6
ByLayer
 10
0.0625000833333333
 20
-4.5416666666666661
 30
0.0
 40
0.0208333333333333
  0
CIRCLE
  5
7F
100
AcDbEntity
100
AcDbCircle
  8
coils
 62
256
370
-1
  6
ByLayer
 10
0.0625000833333333
 20
-4.625
 30
0.0
 40
0.0208333333333333
  0
CIRCLE
  5
80
100
AcDbEntity
100
AcDbCircle
  8
coils
 62
256
370
-1
  6
ByLayer
 10
0.0625000833333333
 20
-4.708333333333333
 30
0.0
 40
0.0208333333333333
  0
CIRCLE
  5
81
100
AcDbEntity
100
AcDbCircle
  8
coils
 62
256
370
-1
  6
ByLayer
 10
0.0625000833333333
 20
-4.7916666666666661
 30
0.0
 40
0.0208333333333333
  0
CIRCLE
  5
82
100
AcDbEntity
100
AcDbCircle
  8
coils
 62
256
370
-1
  6
ByLayer
 10
0.0625000833333333
 20
-4.875
 30
0.0
 40
0.0208333333333333
  0
CIRCLE
  5
83
100
AcDbEntity
100
AcDbCircle
  8
coils
 62
256
370
-1
  6
ByLayer
 10
0.0625000833333333
 20
-4.958333333333333
 30
0.0
 40
0.0208333333333333
  0
CIRCLE
  5
84
100
AcDbEntity
100
AcDbCircle
  8
coils
 62
256
370
-1
  6
ByLayer
 10
0.0625000833333333
 20
-5.0416666666666661
 30
0.0
 40
0.0208333333333333
  0
CIRCLE
  5
85
100
AcDbEntity
100
AcDbCircle
  8
coils
 62
256
370
-1
  6
ByLayer
 10
0.0625000833333333
 20
-5.125
 30
0.0
 40
0.0208333333333333
  0
CIRCLE
  5
86
100
AcDbEntity
100
AcDbCircle
  8
coils
 62
256
370
-1
  6
ByLayer
 10
0.0625000833333333
 20
-5.208333333333333
 30
0.0
 40
0.0208333333333333
  0
CIRCLE
  5
87
100
AcDbEntity
100
AcDbCircle
  8
coils
 62
256
370
-1
  6
ByLayer
 10
0.0625000833333333
 20
-5.2916666666666661
 30
0.0
 40
0.0208333333333333
  0
CIRCLE
  5
88
100
AcDbEntity
100
AcDbCircle
  8
coils
 62
256
370
-1
  6
ByLayer
 10
0.0625000833333333
 20
-5.375
 30
0.0
 40
0.0208333333333333
  0
CIRCLE
  5
89
100
AcDbEntity
100
AcDbCircle
  8
coils
 62
256
370
-1
  6
ByLayer
 10
0.0625000833333333
 20
-5.458333333333333
 30
0.0
 40
0.0208333333333333
  0
CIRCLE
  5
8A
100
AcDbEntity
100
AcDbCircle
  8
coils
 62
256
370
-1
  6
ByLayer
 10
0.0625000833333333
 20
-5.5416666666666661
 30
0.0
 40
0.0208333333333333
  0
CIRCLE
  5
8B
100
AcDbEntity
100
AcDbCircle
  8
coils
 62
256
370
-1
  6
ByLayer
 10
0.0625000833333333
 20
-5.625
 30
0.0
 40
0.0208333333333333
  0
CIRCLE
  5
8C
100
AcDbEntity
100
AcDbCircle
  8
coils
 62
256
370
-1
  6
ByLayer
 10
0.0625000833333333
 20
-5.708333333333333
 30
0.0
 40
0.0208333333333333
  0
CIRCLE
  5
8D
100
AcDbEntity
100
AcDbCircle
  8
coils
 62
256
370
-1
  6
ByLayer
 10
0.0625000833333333
 20
-5.7916666666666661
 30
0.0
 40
0.0208333333333333
  0
CIRCLE
  5
8E
100
AcDbEntity
100
AcDbCircle
  8
coils
 62
256
370
-1
  6
ByLayer
 10
0.0625000833333333
 20
-5.8749999999999991
 30
0.0
 40
0.0208333333333333
  0
CIRCLE
  5
8F
100
AcDbEntity
100
AcDbCircle
  8
coils
 62
256
370
-1
  6
ByLayer
 10
0.0625000833333333
 20
-5.958333333333333
 30
0.0
 40
0.0208333333333333
  0
CIRCLE
  5
90
100
AcDbEntity
100
AcDbCircle
  8
coils
 62
256
370
-1
  6
ByLayer
 10
0.0625000833333333
 20
-6.0416666666666661
 30
0.0
 40
0.0208333333333333
  0
CIRCLE
  5
91
100
AcDbEntity
100
AcDbCircle
  8
coils
 62
256
370
-1
  6
ByLayer
 10
0.0625000833333333
 20
-6.1249999999999991
 30
0.0
 40
0.0208333333333333
  0
CIRCLE
  5
92
100
AcDbEntity
100
AcDbCircle
  8
coils
 62
256
370
-1
  6
ByLayer
 10
0.0625000833333333
 20
-6.208333333333333
 30
0.0
 40
0.0208333333333333
  0
CIRCLE
  5
93
100
AcDbEntity
100
AcDbCircle
  8
coils
 62
256
370
-1
  6
ByLayer
 10
0.0625000833333333
 20
-6.2916666666666661
 30
0.0
 40
0.0208333333333333
  0
CIRCLE
  5
94
100
AcDbEntity
100
AcDbCircle
  8
coils
 62
256
370
-1
  6
ByLayer
 10
0.0625000833333333
 20
-6.3749999999999991
 30
0.0
 40
0.0208333333333333
  0
CIRCLE
  5
95
100
AcDbEntity
100
AcDbCircle
  8
coils
 62
256
370
-1
  6
ByLayer
 10
0.0625000833333333
 20
-6.458333333333333
 30
0.0
 40
0.0208333333333333
  0
CIRCLE
  5
96
100
AcDbEntity
100
AcDbCircle
  8
coils
 62
256
370
-1
  6
ByLayer
 10
0.0625000833333333
 20
-6.5416666666666661
 30
0.0
 40
0.0208333333333333
  0
CIRCLE
  5
97
100
AcDbEntity
100
AcDbCircle
  8
coils
 62
256
370
-1
  6
ByLayer
 10
0.0625000833333333
 20
-6.6249999999999991
 30
0.0
 40
0.0208333333333333
  0
CIRCLE
  5
98
100
AcDbEntity
100
AcDbCircle
  8
coils
 62
256
370
-1
  6
ByLayer
 10
0.0625000833333333
 20
-6.708333333333333
 30
0.0
 40
0.0208333333333333
  0
CIRCLE
  5
99
100
AcDbEntity
100
AcDbCircle
  8
coils
 62
256
370
-1
  6
ByLayer
 10
0.0625000833333333
 20
-6.7916666666666661
 30
0.0
 40
0.0208333333333333
  0
CIRCLE
  5
9A
100
AcDbEntity
100
AcDbCircle
  8
coils
 62
256
370
-1
  6
ByLayer
 10
0.0625000833333333
 20
-6.8749999999999991
 30
0.0
 40
0.0208333333333333
  0
CIRCLE
  5
9B
100
AcDbEntity
100
AcDbCircle
  8
coils
 62
256
370
-1
  6
ByLayer
 10
0.0625000833333333
 20
-6.958333333333333
 30
0.0
 40
0.0208333333333333
  0
CIRCLE
  5
9C
100
AcDbEntity
100
AcDbCircle
  8
coils
 62
256
370
-1
  6
ByLayer
 10
0.3541669166666667
 20
-0.0625
 30
0.0
 40
0.0208333333333333
  0
CIRCLE
  5
9D
100
AcDbEntity
100
AcDbCircle
  8
coils
 62
256
370
-1
  6
ByLayer
 10
0.3541669166666667
 20
-0.1458333333333333
 30
0.0
 40
0.0208333333333333
  0
CIRCLE
  5
9E
100
AcDbEntity
100
AcDbCircle
  8
coils
 62
256
370
-1
  6
ByLayer
 10
0.3541669166666667
 20
-0.2291666666666667
 30
0.0
 40
0.0208333333333333
  0
CIRCLE
  5
9F
100
AcDbEntity
100
AcDbCircle
  8
coils
 62
256
370
-1
  6
ByLayer
 10
0.3541669166666667
 20
-0.3125
 30
0.0
 40
0.0208333333333333
  0
CIRCLE
  5
A0
100
AcDbEntity
100
AcDbCircle
  8
coils
 62
256
370
-1
  6
ByLayer
 10
0.3541669166666667
 20
-0.3958333333333333
 30
0.0
 40
0.0208333333333333
  0
CIRCLE
  5
A1
100
AcDbEntity
100
AcDbCircle
  8
coils
 62
256
370
-1
  6
ByLayer
 10
0.3541669166666667
 20
-0.4791666666666666
 30
0.0
 40
0.0208333333333333
  0
CIRCLE
  5
A2
100
AcDbEntity
100
AcDbCircle
  8
coils
 62
256
370
-1
  6
ByLayer
 10
0.3541669166666667
 20
-0.5625
 30
0.0
 40
0.0208333333333333
  0
CIRCLE
  5
A3
100
AcDbEntity
100
AcDbCircle
  8
coils
 62
256
370
-1
  6
ByLayer
 10
0.3541669166666667
 20
-0.6458333333333333
 30
0.0
 40
0.0208333333333333
  0
CIRCLE
  5
A4
100
AcDbEntity
100
AcDbCircle
  8
coils
 62
256
370
-1
  6
ByLayer
 10
0.3541669166666667
 20
-0.7291666666666666
 30
0.0
 40
0.0208333333333333
  0
CIRCLE
  5
A5
100
AcDbEntity
100
AcDbCircle
  8
coils
 62
256
370
-1
  6
ByLayer
 10
0.3541669166666667
 20
-0.8125
 30
0.0
 40
0.0208333333333333
  0
CIRCLE
  5
A6
100
AcDbEntity
100
AcDbCircle
  8
coils
 62
256
370
-1
  6
ByLayer
 10
0.3541669166666667
 20
-0.8958333333333333
 30
0.0
 40
0.0208333333333333
  0
CIRCLE
  5
A7
100
AcDbEntity
100
AcDbCircle
  8
coils
 62
256
370
-1
  6
ByLayer
 10
0.3541669166666667
 20
-0.9791666666666666
 30
0.0
 40
0.0208333333333333
  0
CIRCLE
  5
A8
100
AcDbEntity
100
AcDbCircle
  8
coils
 62
256
370
-1
  6
ByLayer
 10
0.3541669166666667
 20
-1.0625
 30
0.0
 40
0.0208333333333333
  0
CIRCLE
  5
A9
100
AcDbEntity
100
AcDbCircle
  8
coils
 62
256
370
-1
  6
ByLayer
 10
0.3541669166666667
 20
-1.1458333333333333
 30
0.0
 40
0.0208333333333333
  0
CIRCLE
  5
AA
100
AcDbEntity
100
AcDbCircle
  8
coils
 62
256
370
-1
  6
ByLayer
 10
0.3541669166666667
 20
-1.2291666666666665
 30
0.0
 40
0.0208333333333333
  0
CIRCLE
  5
AB
100
AcDbEntity
100
AcDbCircle
  8
coils
 62
256
370
-1
  6
ByLayer
 10
0.3541669166666667
 20
-1.3125
 30
0.0
 40
0.0208333333333333
  0
CIRCLE
  5
AC
100
AcDbEntity
100
AcDbCircle
  8
coils
 62
256
370
-1
  6
ByLayer
 10
0.3541669166666667
 20
-1.3958333333333333
 30
0.0
 40
0.0208333333333333
  0
CIRCLE
  5
AD
100
AcDbEntity
100
AcDbCircle
  8
coils
 62
256
370
-1
  6
ByLayer
 10
0.3541669166666667
 20
-1.4791666666666665
 30
0.0
 40
0.0208333333333333
  0
CIRCLE
  5
AE
100
AcDbEntity
100
AcDbCircle
  8
coils
 62
256
370
-1
  6
ByLayer
 10
0.3541669166666667
 20
-1.5625
 30
0.0
 40
0.0208333333333333
  0
CIRCLE
  5
AF
100
AcDbEntity
100
AcDbCircle
  8
coils
 62
256
370
-1
  6
ByLayer
 10
0.3541669166666667
 20
-1.6458333333333333
 30
0.0
 40
0.0208333333333333
  0
CIRCLE
  5
B0
100
AcDbEntity
100
AcDbCircle
  8
coils
 62
256
370
-1
  6
ByLayer
 10
0.3541669166666667
 20
-1.7291666666666665
 30
0.0
 40
0.0208333333333333
  0
CIRCLE
  5
B1
100
AcDbEntity
100
AcDbCircle
  8
coils
 62
256
370
-1
  6
ByLayer
 10
0.3541669166666667
 20
-1.8124999999999998
 30
0.0
 40
0.0208333333333333
  0
CIRCLE
  5
B2
100
AcDbEntity
100
AcDbCircle
  8
coils
 62
256
370
-1
  6
ByLayer
 10
0.3541669166666667
 20
-1.8958333333333333
 30
0.0
 40
0.0208333333333333
  0
CIRCLE
  5
B3
100
AcDbEntity
100
AcDbCircle
  8
coils
 62
256
370
-1
  6
ByLayer
 10
0.3541669166666667
 20
-1.9791666666666665
 30
0.0
 40
0.0208333333333333
  0
CIRCLE
  5
B4
100
AcDbEntity
100
AcDbCircle
  8
coils
 62
256
370
-1
  6
ByLayer
 10
0.3541669166666667
 20
-2.0625
 30
0.0
 40
0.0208333333333333
  0
CIRCLE
  5
B5
100
AcDbEntity
100
AcDbCircle
  8
coils
 62
256
370
-1
  6
ByLayer
 10
0.3541669166666667
 20
-2.145833333333333
 30
0.0
 40
0.0208333333333333
  0
CIRCLE
  5
B6
100
AcDbEntity
100
AcDbCircle
  8
coils
 62
256
370
-1
  6
ByLayer
 10
0.3541669166666667
 20
-2.2291666666666665
 30
0.0
 40
0.0208333333333333
  0
CIRCLE
  5
B7
100
AcDbEntity
100
AcDbCircle
  8
coils
 62
256
370
-1
  6
ByLayer
 10
0.3541669166666667
 20
-2.3125
 30
0.0
 40
0.0208333333333333
  0
CIRCLE
  5
B8
100
AcDbEntity
100
AcDbCircle
  8
coils
 62
256
370
-1
  6
ByLayer
 10
0.3541669166666667
 20
-2.395833333333333
 30
0.0
 40
0.0208333333333333
  0
CIRCLE
  5
B9
100
AcDbEntity
100
AcDbCircle
  8
coils
 62
256
370
-1
  6
ByLayer
 10
0.3541669166666667
 20
-2.4791666666666665
 30
0.0
 40
0.0208333333333333
  0
CIRCLE
  5
BA
100
AcDbEntity
100
AcDbCircle
  8
coils
 62
256
370
-1
  6
ByLayer
 10
0.3541669166666667
 20
-2.5625
 30
0.0
 40
0.0208333333333333
  0
CIRCLE
  5
BB
100
AcDbEntity
100
AcDbCircle
  8
coils
 62
256
370
-1
  6
ByLayer
 10
0.3541669166666667
 20
-2.645833333333333
 30
0.0
 40
0.0208333333333333
  0
CIRCLE
  5
BC
100
AcDbEntity
100
AcDbCircle
  8
coils
 62
256
370
-1
  6
ByLayer
 10
0.3541669166666667
 20
-2.7291666666666665
 30
0.0
 40
0.0208333333333333
  0
CIRCLE
  5
BD
100
AcDbEntity
100
AcDbCircle
  8
coils
 62
256
370
-1
  6
ByLayer
 10
0.3541669166666667
 20
-2.8125
 30
0.0
 40
0.0208333333333333
  0
CIRCLE
  5
BE
100
AcDbEntity
100
AcDbCircle
  8
coils
 62
256
370
-1
  6
ByLayer
 10
0.3541669166666667
 20
-2.895833333333333
 30
0.0
 40
0.0208333333333333
  0
CIRCLE
  5
BF
100
AcDbEntity
100
AcDbCircle
  8
coils
 62
256
370
-1
  6
ByLayer
 10
0.3541669166666667
 20
-2.9791666666666665
 30
0.0
 40
0.0208333333333333
  0
CIRCLE
  5
C0
100
AcDbEntity
100
AcDbCircle
  8
coils
 62
256
370
-1
  6
ByLayer
 10
0.3541669166666667
 20
-3.0625
 30
0.0
 40
0.0208333333333333
  0
CIRCLE
  5
C1
100
AcDbEntity
100
AcDbCircle
  8
coils
 62
256
370
-1
  6
ByLayer
 10
0.3541669166666667
 20
-3.145833333333333
 30
0.0
 40
0.0208333333333333
  0
CIRCLE
  5
C2
100
AcDbEntity
100
AcDbCircle
  8
coils
 62
256
370
-1
  6
ByLayer
 10
0.3541669166666667
 20
-3.2291666666666665
 30
0.0
 40
0.0208333333333333
  0
CIRCLE
  5
C3
100
AcDbEntity
100
AcDbCircle
  8
coils
 62
256
370
-1
  6
ByLayer
 10
0.3541669166666667
 20
-3.3125
 30
0.0
 40
0.0208333333333333
  0
CIRCLE
  5
C4
100
AcDbEntity
100
AcDbCircle
  8
coils
 62
256
370
-1
  6
ByLayer
 10
0.3541669166666667
 20
-3.395833333333333
 30
0.0
 40
0.0208333333333333
  0
CIRCLE
  5
C5
100
AcDbEntity
100
AcDbCircle
  8
coils
 62
256
370
-1
  6
ByLayer
 10
0.3541669166666667
 20
-3.4791666666666665
 30
0.0
 40
0.0208333333333333
  0
CIRCLE
  5
C6
100
AcDbEntity
100
AcDbCircle
  8
coils
 62
256
370
-1
  6
ByLayer
 10
0.3541669166666667
 20
-3.5625
 30
0.0
 40
0.0208333333333333
  0
CIRCLE
  5
C7
100
AcDbEntity
100
AcDbCircle
  8
coils
 62
256
370
-1
  6
ByLayer
 10
0.3541669166666667
 20
-3.645833333333333
 30
0.0
 40
0.0208333333333333
  0
CIRCLE
  5
C8
100
AcDbEntity
100
AcDbCircle
  8
coils
 62
256
370
-1
  6
ByLayer
 10
0.3541669166666667
 20
-3.7291666666666665
 30
0.0
 40
0.0208333333333333
  0
CIRCLE
  5
C9
100
AcDbEntity
100
AcDbCircle
  8
coils
 62
256
370
-1
  6
ByLayer
 10
0.3541669166666667
 20
-3.8124999999999996
 30
0.0
 40
0.0208333333333333
  0
CIRCLE
  5
CA
100
AcDbEntity
100
AcDbCircle
  8
coils
 62
256
370
-1
  6
ByLayer
 10
0.3541669166666667
 20
-3.895833333333333
 30
0.0
 40
0.0208333333333333
  0
CIRCLE
  5
CB
100
AcDbEntity
100
AcDbCircle
  8
coils
 62
256
370
-1
  6
ByLayer
 10
0.3541669166666667
 20
-3.9791666666666665
 30
0.0
 40
0.0208333333333333
  0
CIRCLE
  5
CC
100
AcDbEntity
100
AcDbCircle
  8
coils
 62
256
370
-1
  6
ByLayer
 10
0.3541669166666667
 20
-4.0625
 30
0.0
 40
0.0208333333333333
  0
CIRCLE
  5
CD
100
AcDbEntity
100
AcDbCircle
  8
coils
 62
256
370
-1
  6
ByLayer
 10
0.3541669166666667
 20
-4.145833333333333
 30
0.0
 40
0.0208333333333333
  0
CIRCLE
  5
CE
100
AcDbEntity
100
AcDbCircle
  8
coils
 62
256
370
-1
  6
ByLayer
 10
0.3541669166666667
 20
-4.2291666666666661
 30
0.0
 40
0.0208333333333333
  0
CIRCLE
  5
CF
100
AcDbEntity
100
AcDbCircle
  8
coils
 62
256
370
-1
  6
ByLayer
 10
0.3541669166666667
 20
-4.3125
 30
0.0
 40
0.0208333333333333
  0
CIRCLE
  5
D0
100
AcDbEntity
100
AcDbCircle
  8
coils
 62
256
370
-1
  6
ByLayer
 10
0.3541669166666667
 20
-4.395833333333333
 30
0.0
 40
0.0208333333333333
  0
CIRCLE
  5
D1
100
AcDbEntity
100
AcDbCircle
  8
coils
 62
256
370
-1
  6
ByLayer
 10
0.3541669166666667
 20
-4.4791666666666661
 30
0.0
 40
0.0208333333333333
  0
CIRCLE
  5
D2
100
AcDbEntity
100
AcDbCircle
  8
coils
 62
256
370
-1
  6
ByLayer
 10
0.3541669166666667
 20
-4.5625
 30
0.0
 40
0.0208333333333333
  0
CIRCLE
  5
D3
100
AcDbEntity
100
AcDbCircle
  8
coils
 62
256
370
-1
  6
ByLayer
 10
0.3541669166666667
 20
-4.645833333333333
 30
0.0
 40
0.0208333333333333
  0
CIRCLE
  5
D4
100
AcDbEntity
100
AcDbCircle
  8
coils
 62
256
370
-1
  6
ByLayer
 10
0.3541669166666667
 20
-4.7291666666666661
 30
0.0
 40
0.0208333333333333
  0
CIRCLE
  5
D5
100
AcDbEntity
100
AcDbCircle
  8
coils
 62
256
370
-1
  6
ByLayer
 10
0.3541669166666667
 20
-4.8125
 30
0.0
 40
0.0208333333333333
  0
CIRCLE
  5
D6
100
AcDbEntity
100
AcDbCircle
  8
coils
 62
256
370
-1
  6
ByLayer
 10
0.3541669166666667
 20
-4.895833333333333
 30
0.0
 40
0.0208333333333333
  0
CIRCLE
  5
D7
100
AcDbEntity
100
AcDbCircle
  8
coils
 62
256
370
-1
  6
ByLayer
 10
0.3541669166666667
 20
-4.9791666666666661
 30
0.0
 40
0.0208333333333333
  0
CIRCLE
  5
D8
100
AcDbEntity
100
AcDbCircle
  8
coils
 62
256
370
-1
  6
ByLayer
 10
0.3541669166666667
 20
-5.0625
 30
0.0
 40
0.0208333333333333
  0
CIRCLE
  5
D9
100
AcDbEntity
100
AcDbCircle
  8
coils
 62
256
370
-1
  6
ByLayer
 10
0.3541669166666667
 20
-5.145833333333333
 30
0.0
 40
0.0208333333333333
  0
CIRCLE
  5
DA
100
AcDbEntity
100
AcDbCircle
  8
coils
 62
256
370
-1
  6
ByLayer
 10
0.3541669166666667
 20
-5.2291666666666661
 30
0.0
 40
0.0208333333333333
  0
CIRCLE
  5
DB
100
AcDbEntity
100
AcDbCircle
  8
coils
 62
256
370
-1
  6
ByLayer
 10
0.3541669166666667
 20
-5.3125
 30
0.0
 40
0.0208333333333333
  0
CIRCLE
  5
DC
100
AcDbEntity
100
AcDbCircle
  8
coils
 62
256
370
-1
  6
ByLayer
 10
0.3541669166666667
 20
-5.395833333333333
 30
0.0
 40
0.0208333333333333
  0
CIRCLE
  5
DD
100
AcDbEntity
100
AcDbCircle
  8
coils
 62
256
370
-1
  6
ByLayer
 10
0.3541669166666667
 20
-5.4791666666666661
 30
0.0
 40
0.0208333333333333
  0
CIRCLE
  5
DE
100
AcDbEntity
100
AcDbCircle
  8
coils
 62
256
370
-1
  6
ByLayer
 10
0.3541669166666667
 20
-5.5625
 30
0.0
 40
0.0208333333333333
  0
CIRCLE
  5
DF
100
AcDbEntity
100
AcDbCircle
  8
coils
 62
256
370
-1
  6
ByLayer
 10
0.3541669166666667
 20
-5.645833333333333
 30
0.0
 40
0.0208333333333333
  0
CIRCLE
  5
E0
100
AcDbEntity
100
AcDbCircle
  8
coils
 62
256
370
-1
  6
ByLayer
 10
0.3541669166666667
 20
-5.7291666666666661
 30
0.0
 40
0.0208333333333333
  0
CIRCLE
  5
E1
100
AcDbEntity
100
AcDbCircle
  8
coils
 62
256
370
-1
  6
ByLayer
 10
0.3541669166666667
 20
-5.8125
 30
0.0
 40
0.0208333333333333
  0
CIRCLE
  5
E2
100
AcDbEntity
100
AcDbCircle
  8
coils
 62
256
370
-1
  6
ByLayer
 10
0.3541669166666667
 20
-5.8958333333333321
 30
0.0
 40
0.0208333333333333
  0
CIRCLE
  5
E3
100
AcDbEntity
100
AcDbCircle
  8
coils
 62
256
370
-1
  6
ByLayer
 10
0.3541669166666667
 20
-5.9791666666666661
 30
0.0
 40
0.0208333333333333
  0
CIRCLE
  5
E4
100
AcDbEntity
100
AcDbCircle
  8
coils
 62
256
370
-1
  6
ByLayer
 10
0.3541669166666667
 20
-6.0625
 30
0.0
 40
0.0208333333333333
  0
CIRCLE
  5
E5
100
AcDbEntity
100
AcDbCircle
  8
coils
 62
256
370
-1
  6
ByLayer
 10
0.3541669166666667
 20
-6.1458333333333321
 30
0.0
 40
0.0208333333333333
  0
CIRCLE
  5
E6
100
AcDbEntity
100
AcDbCircle
  8
coils
 62
256
370
-1
  6
ByLayer
 10
0.3541669166666667
 20
-6.2291666666666661
 30
0.0
 40
0.0208333333333333
  0
CIRCLE
  5
E7
100
AcDbEntity
100
AcDbCircle
  8
coils
 62
256
370
-1
  6
ByLayer
 10
0.3541669166666667
 20
-6.3125
 30
0.0
 40
0.0208333333333333
  0
CIRCLE
  5
E8
100
AcDbEntity
100
AcDbCircle
  8
coils
 62
256
370
-1
  6
ByLayer
 10
0.3541669166666667
 20
-6.3958333333333321
 30
0.0
 40
0.0208333333333333
  0
CIRCLE
  5
E9
100
AcDbEntity
100
AcDbCircle
  8
coils
 62
256
370
-1
  6
ByLayer
 10
0.3541669166666667
 20
-6.4791666666666661
 30
0.0
 40
0.0208333333333333
  0
CIRCLE
  5
EA
100
AcDbEntity
100
AcDbCircle
  8
coils
 62
256
370
-1
  6
ByLayer
 10
0.3541669166666667
 20
-6.5625
 30
0.0
 40
0.0208333333333333
  0
CIRCLE
  5
EB
100
AcDbEntity
100
AcDbCircle
  8
coils
 62
256
370
-1
  6
ByLayer
 10
0.3541669166666667
 20
-6.6458333333333321
 30
0.0
 40
0.0208333333333333
  0
CIRCLE
  5
EC
100
AcDbEntity
100
AcDbCircle
  8
coils
 62
256
370
-1
  6
ByLayer
 10
0.3541669166666667
 20
-6.7291666666666661
 30
0.0
 40
0.0208333333333333
  0
CIRCLE
  5
ED
100
AcDbEntity
100
AcDbCircle
  8
coils
 62
256
370
-1
  6
ByLayer
 10
0.3541669166666667
 20
-6.8125
 30
0.0
 40
0.0208333333333333
  0
CIRCLE
  5
EE
100
AcDbEntity
100
AcDbCircle
  8
coils
 62
256
370
-1
  6
ByLayer
 10
0.3541669166666667
 20
-6.8958333333333321
 30
0.0
 40
0.0208333333333333
  0
CIRCLE
  5
EF
100
AcDbEntity
100
AcDbCircle
  8
coils
 62
256
370
-1
  6
ByLayer
 10
0.3541669166666667
 20
-6.9791666666666661
 30
0.0
 40
0.0208333333333333
  0
LINE
  5
F0
100
AcDbEntity
100
AcDbLine
  8
exhaust
 62
256
370
-1
  6
ByLayer
 10
-0.0833333333333333
 20
-7.0
 30
0.0
 11
-0.0833333333333333
 21
0.0
 31
0.0
  0
LINE
  5
F1
100
AcDbEntity
100
AcDbLine
  8
exhaust
 62
256
370
-1
  6
ByLayer
 10
-0.0833333333333333
 20
0.0
 30
0.0
 11
0.0
 21
0.0
 31
0.0
  0
LINE
  5
F2
100
AcDbEntity
100
AcDbLine
  8
exhaust
 62
256
370
-1
  6
ByLayer
 10
-0.0833333333333333
 20
-7.0
 30
0.0
 11
0.0
 21
-7.0
 31
0.0
  0
ARC
  5
F3
100
AcDbEntity
  8
exhaust
 62
256
370
-1
  6
ByLayer
100
AcDbCircle
 10
-0.0416666666666667
 20
-7.0
 30
0.0
 40
0.0416666666666667
100
AcDbArc
 50
89.3179396068273519
 51
180.0
  0
ARC
  5
F4
100
AcDbEntity
  8
exhaust
 62
20
370
0
  6
CONTINUOUS
100
AcDbCircle
 10
-0.0416666666666667
 20
-6.9166666666666661
 30
0.0
 40
0.0416666666666667
100
AcDbArc
 50
270.0
 51
90.0
  0
ARC
  5
F5
100
AcDbEntity
  8
exhaust
 62
20
370
0
  6
CONTINUOUS
100
AcDbCircle
 10
-0.0416666666666667
 20
-6.8333333333333321
 30
0.0
 40
0.0416666666666667
100
AcDbArc
 50
90.0
 51
270.0
  0
ARC
  5
F6
100
AcDbEntity
  8
exhaust
 62
20
370
0
  6
CONTINUOUS
100
AcDbCircle
 10
-0.0416666666666667
 20
-6.7499999999999982
 30
0.0
 40
0.0416666666666667
100
AcDbArc
 50
270.0
 51
90.0
  0
ARC
  5
F7
100
AcDbEntity
  8
exhaust
 62
20
370
0
  6
CONTINUOUS
100
AcDbCircle
 10
-0.0416666666666667
 20
-6.6666666666666643
 30
0.0
 40
0.0416666666666667
100
AcDbArc
 50
90.0
 51
270.0
  0
ARC
  5
F8
100
AcDbEntity
  8
exhaust
 62
20
370
0
  6
CONTINUOUS
100
AcDbCircle
 10
-0.0416666666666667
 20
-6.5833333333333304
 30
0.0
 40
0.0416666666666667
100
AcDbArc
 50
270.0
 51
90.0
  0
ARC
  5
F9
100
AcDbEntity
  8
exhaust
 62
20
370
0
  6
CONTINUOUS
100
AcDbCircle
 10
-0.0416666666666667
 20
-6.4999999999999964
 30
0.0
 40
0.0416666666666667
100
AcDbArc
 50
90.0
 51
270.0
  0
ARC
  5
FA
100
AcDbEntity
  8
exhaust
 62
20
370
0
  6
CONTINUOUS
100
AcDbCircle
 10
-0.0416666666666667
 20
-6.4166666666666625
 30
0.0
 40
0.0416666666666667
100
AcDbArc
 50
270.0
 51
90.0
  0
ARC
  5
FB
100
AcDbEntity
  8
exhaust
 62
20
370
0
  6
CONTINUOUS
100
AcDbCircle
 10
-0.0416666666666667
 20
-6.3333333333333286
 30
0.0
 40
0.0416666666666667
100
AcDbArc
 50
90.0
 51
270.0
  0
ARC
  5
FC
100
AcDbEntity
  8
exhaust
 62
20
370
0
  6
CONTINUOUS
100
AcDbCircle
 10
-0.0416666666666667
 20
-6.2499999999999947
 30
0.0
 40
0.0416666666666667
100
AcDbArc
 50
270.0
 51
90.0
  0
ARC
  5
FD
100
AcDbEntity
  8
exhaust
 62
20
370
0
  6
CONTINUOUS
100
AcDbCircle
 10
-0.0416666666666667
 20
-6.1666666666666607
 30
0.0
 40
0.0416666666666667
100
AcDbArc
 50
90.0
 51
270.0
  0
ARC
  5
FE
100
AcDbEntity
  8
exhaust
 62
20
370
0
  6
CONTINUOUS
100
AcDbCircle
 10
-0.0416666666666667
 20
-6.0833333333333268
 30
0.0
 40
0.0416666666666667
100
AcDbArc
 50
270.0
 51
90.0
  0
ARC
  5
FF
100
AcDbEntity
  8
exhaust
 62
20
370
0
  6
CONTINUOUS
100
AcDbCircle
 10
-0.0416666666666667
 20
-5.9999999999999929
 30
0.0
 40
0.0416666666666667
100
AcDbArc
 50
90.0
 51
270.0
  0
ARC
  5
100
100
AcDbEntity
  8
exhaust
 62
20
370
0
  6
CONTINUOUS
100
AcDbCircle
 10
-0.0416666666666667
 20
-5.916666666666659
 30
0.0
 40
0.0416666666666667
100
AcDbArc
 50
270.0
 51
90.0
  0
ARC
  5
101
100
AcDbEntity
  8
exhaust
 62
20
370
0
  6
CONTINUOUS
100
AcDbCircle
 10
-0.0416666666666667
 20
-5.833333333333325
 30
0.0
 40
0.0416666666666667
100
AcDbArc
 50
90.0
 51
270.0
  0
ARC
  5
102
100
AcDbEntity
  8
exhaust
 62
20
370
0
  6
CONTINUOUS
100
AcDbCircle
 10
-0.0416666666666667
 20
-5.7499999999999911
 30
0.0
 40
0.0416666666666667
100
AcDbArc
 50
270.0
 51
90.0
  0
ARC
  5
103
100
AcDbEntity
  8
exhaust
 62
20
370
0
  6
CONTINUOUS
100
AcDbCircle
 10
-0.0416666666666667
 20
-5.6666666666666572
 30
0.0
 40
0.0416666666666667
100
AcDbArc
 50
90.0
 51
270.0
  0
ARC
  5
104
100
AcDbEntity
  8
exhaust
 62
20
370
0
  6
CONTINUOUS
100
AcDbCircle
 10
-0.0416666666666667
 20
-5.5833333333333233
 30
0.0
 40
0.0416666666666667
100
AcDbArc
 50
270.0
 51
90.0
  0
ARC
  5
105
100
AcDbEntity
  8
exhaust
 62
20
370
0
  6
CONTINUOUS
100
AcDbCircle
 10
-0.0416666666666667
 20
-5.4999999999999893
 30
0.0
 40
0.0416666666666667
100
AcDbArc
 50
90.0
 51
270.0
  0
ARC
  5
106
100
AcDbEntity
  8
exhaust
 62
20
370
0
  6
CONTINUOUS
100
AcDbCircle
 10
-0.0416666666666667
 20
-5.4166666666666554
 30
0.0
 40
0.0416666666666667
100
AcDbArc
 50
270.0
 51
90.0
  0
ARC
  5
107
100
AcDbEntity
  8
exhaust
 62
20
370
0
  6
CONTINUOUS
100
AcDbCircle
 10
-0.0416666666666667
 20
-5.3333333333333215
 30
0.0
 40
0.0416666666666667
100
AcDbArc
 50
90.0
 51
270.0
  0
ARC
  5
108
100
AcDbEntity
  8
exhaust
 62
20
370
0
  6
CONTINUOUS
100
AcDbCircle
 10
-0.0416666666666667
 20
-5.2499999999999876
 30
0.0
 40
0.0416666666666667
100
AcDbArc
 50
270.0
 51
90.0
  0
ARC
  5
109
100
AcDbEntity
  8
exhaust
 62
20
370
0
  6
CONTINUOUS
100
AcDbCircle
 10
-0.0416666666666667
 20
-5.1666666666666536
 30
0.0
 40
0.0416666666666667
100
AcDbArc
 50
90.0
 51
270.0
  0
ARC
  5
10A
100
AcDbEntity
  8
exhaust
 62
20
370
0
  6
CONTINUOUS
100
AcDbCircle
 10
-0.0416666666666667
 20
-5.0833333333333197
 30
0.0
 40
0.0416666666666667
100
AcDbArc
 50
270.0
 51
90.0
  0
ARC
  5
10B
100
AcDbEntity
  8
exhaust
 62
20
370
0
  6
CONTINUOUS
100
AcDbCircle
 10
-0.0416666666666667
 20
-4.9999999999999858
 30
0.0
 40
0.0416666666666667
100
AcDbArc
 50
90.0
 51
270.0
  0
ARC
  5
10C
100
AcDbEntity
  8
exhaust
 62
20
370
0
  6
CONTINUOUS
100
AcDbCircle
 10
-0.0416666666666667
 20
-4.9166666666666519
 30
0.0
 40
0.0416666666666667
100
AcDbArc
 50
270.0
 51
90.0
  0
ARC
  5
10D
100
AcDbEntity
  8
exhaust
 62
20
370
0
  6
CONTINUOUS
100
AcDbCircle
 10
-0.0416666666666667
 20
-4.8333333333333179
 30
0.0
 40
0.0416666666666667
100
AcDbArc
 50
90.0
 51
270.0
  0
ARC
  5
10E
100
AcDbEntity
  8
exhaust
 62
20
370
0
  6
CONTINUOUS
100
AcDbCircle
 10
-0.0416666666666667
 20
-4.749999999999984
 30
0.0
 40
0.0416666666666667
100
AcDbArc
 50
270.0
 51
90.0
  0
ARC
  5
10F
100
AcDbEntity
  8
exhaust
 62
20
370
0
  6
CONTINUOUS
100
AcDbCircle
 10
-0.0416666666666667
 20
-4.6666666666666501
 30
0.0
 40
0.0416666666666667
100
AcDbArc
 50
90.0
 51
270.0
  0
ARC
  5
110
100
AcDbEntity
  8
exhaust
 62
20
370
0
  6
CONTINUOUS
100
AcDbCircle
 10
-0.0416666666666667
 20
-4.5833333333333162
 30
0.0
 40
0.0416666666666667
100
AcDbArc
 50
270.0
 51
90.0
  0
ARC
  5
111
100
AcDbEntity
  8
exhaust
 62
20
370
0
  6
CONTINUOUS
100
AcDbCircle
 10
-0.0416666666666667
 20
-4.4999999999999822
 30
0.0
 40
0.0416666666666667
100
AcDbArc
 50
90.0
 51
270.0
  0
ARC
  5
112
100
AcDbEntity
  8
exhaust
 62
20
370
0
  6
CONTINUOUS
100
AcDbCircle
 10
-0.0416666666666667
 20
-4.4166666666666483
 30
0.0
 40
0.0416666666666667
100
AcDbArc
 50
270.0
 51
90.0
  0
ARC
  5
113
100
AcDbEntity
  8
exhaust
 62
20
370
0
  6
CONTINUOUS
100
AcDbCircle
 10
-0.0416666666666667
 20
-4.3333333333333144
 30
0.0
 40
0.0416666666666667
100
AcDbArc
 50
90.0
 51
270.0
  0
ARC
  5
114
100
AcDbEntity
  8
exhaust
 62
20
370
0
  6
CONTINUOUS
100
AcDbCircle
 10
-0.0416666666666667
 20
-4.2499999999999805
 30
0.0
 40
0.0416666666666667
100
AcDbArc
 50
270.0
 51
90.0
  0
ARC
  5
115
100
AcDbEntity
  8
exhaust
 62
20
370
0
  6
CONTINUOUS
100
AcDbCircle
 10
-0.0416666666666667
 20
-4.1666666666666465
 30
0.0
 40
0.0416666666666667
100
AcDbArc
 50
90.0
 51
270.0
  0
ARC
  5
116
100
AcDbEntity
  8
exhaust
 62
20
370
0
  6
CONTINUOUS
100
AcDbCircle
 10
-0.0416666666666667
 20
-4.0833333333333126
 30
0.0
 40
0.0416666666666667
100
AcDbArc
 50
270.0
 51
90.0
  0
ARC
  5
117
100
AcDbEntity
  8
exhaust
 62
20
370
0
  6
CONTINUOUS
100
AcDbCircle
 10
-0.0416666666666667
 20
-3.9999999999999787
 30
0.0
 40
0.0416666666666667
100
AcDbArc
 50
90.0
 51
270.0
  0
ARC
  5
118
100
AcDbEntity
  8
exhaust
 62
20
370
0
  6
CONTINUOUS
100
AcDbCircle
 10
-0.0416666666666667
 20
-3.9166666666666448
 30
0.0
 40
0.0416666666666667
100
AcDbArc
 50
270.0
 51
90.0
  0
ARC
  5
119
100
AcDbEntity
  8
exhaust
 62
20
370
0
  6
CONTINUOUS
100
AcDbCircle
 10
-0.0416666666666667
 20
-3.8333333333333108
 30
0.0
 40
0.0416666666666667
100
AcDbArc
 50
90.0
 51
270.0
  0
ARC
  5
11A
100
AcDbEntity
  8
exhaust
 62
20
370
0
  6
CONTINUOUS
100
AcDbCircle
 10
-0.0416666666666667
 20
-3.7499999999999769
 30
0.0
 40
0.0416666666666667
100
AcDbArc
 50
270.0
 51
90.0
  0
ARC
  5
11B
100
AcDbEntity
  8
exhaust
 62
20
370
0
  6
CONTINUOUS
100
AcDbCircle
 10
-0.0416666666666667
 20
-3.666666666666643
 30
0.0
 40
0.0416666666666667
100
AcDbArc
 50
90.0
 51
270.0
  0
ARC
  5
11C
100
AcDbEntity
  8
exhaust
 62
20
370
0
  6
CONTINUOUS
100
AcDbCircle
 10
-0.0416666666666667
 20
-3.5833333333333091
 30
0.0
 40
0.0416666666666667
100
AcDbArc
 50
270.0
 51
90.0
  0
ARC
  5
11D
100
AcDbEntity
  8
exhaust
 62
20
370
0
  6
CONTINUOUS
100
AcDbCircle
 10
-0.0416666666666667
 20
-3.4999999999999751
 30
0.0
 40
0.0416666666666667
100
AcDbArc
 50
90.0
 51
270.0
  0
ARC
  5
11E
100
AcDbEntity
  8
exhaust
 62
20
370
0
  6
CONTINUOUS
100
AcDbCircle
 10
-0.0416666666666667
 20
-3.4166666666666412
 30
0.0
 40
0.0416666666666667
100
AcDbArc
 50
270.0
 51
90.0
  0
ARC
  5
11F
100
AcDbEntity
  8
exhaust
 62
20
370
0
  6
CONTINUOUS
100
AcDbCircle
 10
-0.0416666666666667
 20
-3.3333333333333073
 30
0.0
 40
0.0416666666666667
100
AcDbArc
 50
90.0
 51
270.0
  0
ARC
  5
120
100
AcDbEntity
  8
exhaust
 62
20
370
0
  6
CONTINUOUS
100
AcDbCircle
 10
-0.0416666666666667
 20
-3.2499999999999734
 30
0.0
 40
0.0416666666666667
100
AcDbArc
 50
270.0
 51
90.0
  0
ARC
  5
121
100
AcDbEntity
  8
exhaust
 62
20
370
0
  6
CONTINUOUS
100
AcDbCircle
 10
-0.0416666666666667
 20
-3.1666666666666394
 30
0.0
 40
0.0416666666666667
100
AcDbArc
 50
90.0
 51
270.0
  0
ARC
  5
122
100
AcDbEntity
  8
exhaust
 62
20
370
0
  6
CONTINUOUS
100
AcDbCircle
 10
-0.0416666666666667
 20
-3.0833333333333055
 30
0.0
 40
0.0416666666666667
100
AcDbArc
 50
270.0
 51
90.0
  0
ARC
  5
123
100
AcDbEntity
  8
exhaust
 62
20
370
0
  6
CONTINUOUS
100
AcDbCircle
 10
-0.0416666666666667
 20
-2.9999999999999716
 30
0.0
 40
0.0416666666666667
100
AcDbArc
 50
90.0
 51
270.0
  0
ARC
  5
124
100
AcDbEntity
  8
exhaust
 62
20
370
0
  6
CONTINUOUS
100
AcDbCircle
 10
-0.0416666666666667
 20
-2.9166666666666377
 30
0.0
 40
0.0416666666666667
100
AcDbArc
 50
270.0
 51
90.0
  0
ARC
  5
125
100
AcDbEntity
  8
exhaust
 62
20
370
0
  6
CONTINUOUS
100
AcDbCircle
 10
-0.0416666666666667
 20
-2.8333333333333037
 30
0.0
 40
0.0416666666666667
100
AcDbArc
 50
90.0
 51
270.0
  0
ARC
  5
126
100
AcDbEntity
  8
exhaust
 62
20
370
0
  6
CONTINUOUS
100
AcDbCircle
 10
-0.0416666666666667
 20
-2.7499999999999698
 30
0.0
 40
0.0416666666666667
100
AcDbArc
 50
270.0
 51
90.0
  0
ARC
  5
127
100
AcDbEntity
  8
exhaust
 62
20
370
0
  6
CONTINUOUS
100
AcDbCircle
 10
-0.0416666666666667
 20
-2.6666666666666359
 30
0.0
 40
0.0416666666666667
100
AcDbArc
 50
90.0
 51
270.0
  0
ARC
  5
128
100
AcDbEntity
  8
exhaust
 62
20
370
0
  6
CONTINUOUS
100
AcDbCircle
 10
-0.0416666666666667
 20
-2.583333333333302
 30
0.0
 40
0.0416666666666667
100
AcDbArc
 50
270.0
 51
90.0
  0
ARC
  5
129
100
AcDbEntity
  8
exhaust
 62
20
370
0
  6
CONTINUOUS
100
AcDbCircle
 10
-0.0416666666666667
 20
-2.499999999999968
 30
0.0
 40
0.0416666666666667
100
AcDbArc
 50
90.0
 51
270.0
  0
ARC
  5
12A
100
AcDbEntity
  8
exhaust
 62
20
370
0
  6
CONTINUOUS
100
AcDbCircle
 10
-0.0416666666666667
 20
-2.4166666666666341
 30
0.0
 40
0.0416666666666667
100
AcDbArc
 50
270.0
 51
90.0
  0
ARC
  5
12B
100
AcDbEntity
  8
exhaust
 62
20
370
0
  6
CONTINUOUS
100
AcDbCircle
 10
-0.0416666666666667
 20
-2.3333333333333002
 30
0.0
 40
0.0416666666666667
100
AcDbArc
 50
90.0
 51
270.0
  0
ARC
  5
12C
100
AcDbEntity
  8
exhaust
 62
20
370
0
  6
CONTINUOUS
100
AcDbCircle
 10
-0.0416666666666667
 20
-2.2499999999999662
 30
0.0
 40
0.0416666666666667
100
AcDbArc
 50
270.0
 51
90.0
  0
ARC
  5
12D
100
AcDbEntity
  8
exhaust
 62
20
370
0
  6
CONTINUOUS
100
AcDbCircle
 10
-0.0416666666666667
 20
-2.1666666666666323
 30
0.0
 40
0.0416666666666667
100
AcDbArc
 50
90.0
 51
270.0
  0
ARC
  5
12E
100
AcDbEntity
  8
exhaust
 62
20
370
0
  6
CONTINUOUS
100
AcDbCircle
 10
-0.0416666666666667
 20
-2.0833333333332984
 30
0.0
 40
0.0416666666666667
100
AcDbArc
 50
270.0
 51
90.0
  0
ARC
  5
12F
100
AcDbEntity
  8
exhaust
 62
20
370
0
  6
CONTINUOUS
100
AcDbCircle
 10
-0.0416666666666667
 20
-1.9999999999999645
 30
0.0
 40
0.0416666666666667
100
AcDbArc
 50
90.0
 51
270.0
  0
ARC
  5
130
100
AcDbEntity
  8
exhaust
 62
20
370
0
  6
CONTINUOUS
100
AcDbCircle
 10
-0.0416666666666667
 20
-1.9166666666666305
 30
0.0
 40
0.0416666666666667
100
AcDbArc
 50
270.0
 51
90.0
  0
ARC
  5
131
100
AcDbEntity
  8
exhaust
 62
20
370
0
  6
CONTINUOUS
100
AcDbCircle
 10
-0.0416666666666667
 20
-1.8333333333332966
 30
0.0
 40
0.0416666666666667
100
AcDbArc
 50
90.0
 51
270.0
  0
ARC
  5
132
100
AcDbEntity
  8
exhaust
 62
20
370
0
  6
CONTINUOUS
100
AcDbCircle
 10
-0.0416666666666667
 20
-1.7499999999999627
 30
0.0
 40
0.0416666666666667
100
AcDbArc
 50
270.0
 51
90.0
  0
ARC
  5
133
100
AcDbEntity
  8
exhaust
 62
20
370
0
  6
CONTINUOUS
100
AcDbCircle
 10
-0.0416666666666667
 20
-1.6666666666666288
 30
0.0
 40
0.0416666666666667
100
AcDbArc
 50
90.0
 51
270.0
  0
ARC
  5
134
100
AcDbEntity
  8
exhaust
 62
20
370
0
  6
CONTINUOUS
100
AcDbCircle
 10
-0.0416666666666667
 20
-1.5833333333332948
 30
0.0
 40
0.0416666666666667
100
AcDbArc
 50
270.0
 51
90.0
  0
ARC
  5
135
100
AcDbEntity
  8
exhaust
 62
20
370
0
  6
CONTINUOUS
100
AcDbCircle
 10
-0.0416666666666667
 20
-1.4999999999999609
 30
0.0
 40
0.0416666666666667
100
AcDbArc
 50
90.0
 51
270.0
  0
ARC
  5
136
100
AcDbEntity
  8
exhaust
 62
20
370
0
  6
CONTINUOUS
100
AcDbCircle
 10
-0.0416666666666667
 20
-1.416666666666627
 30
0.0
 40
0.0416666666666667
100
AcDbArc
 50
270.0
 51
90.0
  0
ARC
  5
137
100
AcDbEntity
  8
exhaust
 62
20
370
0
  6
CONTINUOUS
100
AcDbCircle
 10
-0.0416666666666667
 20
-1.3333333333332931
 30
0.0
 40
0.0416666666666667
100
AcDbArc
 50
90.0
 51
270.0
  0
ARC
  5
138
100
AcDbEntity
  8
exhaust
 62
20
370
0
  6
CONTINUOUS
100
AcDbCircle
 10
-0.0416666666666667
 20
-1.2499999999999591
 30
0.0
 40
0.0416666666666667
100
AcDbArc
 50
270.0
 51
90.0
  0
ARC
  5
139
100
AcDbEntity
  8
exhaust
 62
20
370
0
  6
CONTINUOUS
100
AcDbCircle
 10
-0.0416666666666667
 20
-1.1666666666666252
 30
0.0
 40
0.0416666666666667
100
AcDbArc
 50
90.0
 51
270.0
  0
ARC
  5
13A
100
AcDbEntity
  8
exhaust
 62
20
370
0
  6
CONTINUOUS
100
AcDbCircle
 10
-0.0416666666666667
 20
-1.0833333333332913
 30
0.0
 40
0.0416666666666667
100
AcDbArc
 50
270.0
 51
90.0
  0
ARC
  5
13B
100
AcDbEntity
  8
exhaust
 62
20
370
0
  6
CONTINUOUS
100
AcDbCircle
 10
-0.0416666666666667
 20
-0.9999999999999574
 30
0.0
 40
0.0416666666666667
100
AcDbArc
 50
90.0
 51
270.0
  0
ARC
  5
13C
100
AcDbEntity
  8
exhaust
 62
20
370
0
  6
CONTINUOUS
100
AcDbCircle
 10
-0.0416666666666667
 20
-0.9166666666666234
 30
0.0
 40
0.0416666666666667
100
AcDbArc
 50
270.0
 51
90.0
  0
ARC
  5
13D
100
AcDbEntity
  8
exhaust
 62
20
370
0
  6
CONTINUOUS
100
AcDbCircle
 10
-0.0416666666666667
 20
-0.8333333333332895
 30
0.0
 40
0.0416666666666667
100
AcDbArc
 50
90.0
 51
270.0
  0
ARC
  5
13E
100
AcDbEntity
  8
exhaust
 62
20
370
0
  6
CONTINUOUS
100
AcDbCircle
 10
-0.0416666666666667
 20
-0.7499999999999556
 30
0.0
 40
0.0416666666666667
100
AcDbArc
 50
270.0
 51
90.0
  0
ARC
  5
13F
100
AcDbEntity
  8
exhaust
 62
20
370
0
  6
CONTINUOUS
100
AcDbCircle
 10
-0.0416666666666667
 20
-0.6666666666666217
 30
0.0
 40
0.0416666666666667
100
AcDbArc
 50
90.0
 51
270.0
  0
ARC
  5
140
100
AcDbEntity
  8
exhaust
 62
20
370
0
  6
CONTINUOUS
100
AcDbCircle
 10
-0.0416666666666667
 20
-0.5833333333332877
 30
0.0
 40
0.0416666666666667
100
AcDbArc
 50
270.0
 51
90.0
  0
ARC
  5
141
100
AcDbEntity
  8
exhaust
 62
20
370
0
  6
CONTINUOUS
100
AcDbCircle
 10
-0.0416666666666667
 20
-0.4999999999999538
 30
0.0
 40
0.0416666666666667
100
AcDbArc
 50
90.0
 51
270.0
  0
ARC
  5
142
100
AcDbEntity
  8
exhaust
 62
20
370
0
  6
CONTINUOUS
100
AcDbCircle
 10
-0.0416666666666667
 20
-0.4166666666666199
 30
0.0
 40
0.0416666666666667
100
AcDbArc
 50
270.0
 51
90.0
  0
ARC
  5
143
100
AcDbEntity
  8
exhaust
 62
20
370
0
  6
CONTINUOUS
100
AcDbCircle
 10
-0.0416666666666667
 20
-0.333333333333286
 30
0.0
 40
0.0416666666666667
100
AcDbArc
 50
90.0
 51
270.0
  0
ARC
  5
144
100
AcDbEntity
  8
exhaust
 62
20
370
0
  6
CONTINUOUS
100
AcDbCircle
 10
-0.0416666666666667
 20
-0.249999999999952
 30
0.0
 40
0.0416666666666667
100
AcDbArc
 50
270.0
 51
90.0
  0
ARC
  5
145
100
AcDbEntity
  8
exhaust
 62
20
370
0
  6
CONTINUOUS
100
AcDbCircle
 10
-0.0416666666666667
 20
-0.1666666666666181
 30
0.0
 40
0.0416666666666667
100
AcDbArc
 50
90.0
 51
270.0
  0
ARC
  5
146
100
AcDbEntity
  8
exhaust
 62
20
370
0
  6
CONTINUOUS
100
AcDbCircle
 10
-0.0416666666666667
 20
-0.0833333333332842
 30
0.0
 40
0.0416666666666667
100
AcDbArc
 50
270.0
 51
90.0
  0
ARC
  5
147
100
AcDbEntity
  8
exhaust
 62
20
370
0
  6
CONTINUOUS
100
AcDbCircle
 10
-0.0416666666666667
 20
0.0000000000000497
 30
0.0
 40
0.0416666666666667
100
AcDbArc
 50
180.0
 51
270.0
  0
LINE
  5
148
100
AcDbEntity
100
AcDbLine
  8
exhaust
 62
256
370
-1
  6
ByLayer
 10
0.4166669999999962
 20
-7.0
 30
0.0
 11
0.416667
 21
0.0
 31
0.0
  0
LINE
  5
149
100
AcDbEntity
100
AcDbLine
  8
exhaust
 62
256
370
-1
  6
ByLayer
 10
0.5000003333333316
 20
-7.0
 30
0.0
 11
0.5000003333333333
 21
0.0
 31
0.0
  0
LINE
  5
14A
100
AcDbEntity
100
AcDbLine
  8
exhaust
 62
256
370
-1
  6
ByLayer
 10
0.5000003333333333
 20
0.0
 30
0.0
 11
0.416667
 21
0.0
 31
0.0
  0
LINE
  5
14B
100
AcDbEntity
100
AcDbLine
  8
exhaust
 62
256
370
-1
  6
ByLayer
 10
0.5000003333333316
 20
-7.0
 30
0.0
 11
0.4166669999999962
 21
-7.0
 31
0.0
  0
ARC
  5
14C
100
AcDbEntity
  8
exhaust
 62
256
370
-1
  6
ByLayer
100
AcDbCircle
 10
0.458333666666667
 20
-7.0
 30
0.0
 40
0.0416666666666667
100
AcDbArc
 50
360.0
 51
90.6820603931726339
  0
ARC
  5
14D
100
AcDbEntity
  8
exhaust
 62
20
370
0
  6
CONTINUOUS
100
AcDbCircle
 10
0.4583336666666623
 20
-6.9166666666666661
 30
0.0
 40
0.0416666666666667
100
AcDbArc
 50
89.9999999999999858
 51
270.0
  0
ARC
  5
14E
100
AcDbEntity
  8
exhaust
 62
20
370
0
  6
CONTINUOUS
100
AcDbCircle
 10
0.4583336666666669
 20
-6.8333333333333321
 30
0.0
 40
0.0416666666666667
100
AcDbArc
 50
270.0
 51
89.9999999999999858
  0
ARC
  5
14F
100
AcDbEntity
  8
exhaust
 62
20
370
0
  6
CONTINUOUS
100
AcDbCircle
 10
0.4583336666666659
 20
-6.7499999999999982
 30
0.0
 40
0.0416666666666667
100
AcDbArc
 50
89.9999999999999858
 51
270.0
  0
ARC
  5
150
100
AcDbEntity
  8
exhaust
 62
20
370
0
  6
CONTINUOUS
100
AcDbCircle
 10
0.4583336666666639
 20
-6.6666666666666643
 30
0.0
 40
0.0416666666666667
100
AcDbArc
 50
270.0
 51
89.9999999999999858
  0
ARC
  5
151
100
AcDbEntity
  8
exhaust
 62
20
370
0
  6
CONTINUOUS
100
AcDbCircle
 10
0.4583336666666674
 20
-6.5833333333333304
 30
0.0
 40
0.0416666666666667
100
AcDbArc
 50
89.9999999999999858
 51
270.0
  0
ARC
  5
152
100
AcDbEntity
  8
exhaust
 62
20
370
0
  6
CONTINUOUS
100
AcDbCircle
 10
0.4583336666666678
 20
-6.4999999999999964
 30
0.0
 40
0.0416666666666667
100
AcDbArc
 50
270.0
 51
89.9999999999999858
  0
ARC
  5
153
100
AcDbEntity
  8
exhaust
 62
20
370
0
  6
CONTINUOUS
100
AcDbCircle
 10
0.4583336666666658
 20
-6.4166666666666625
 30
0.0
 40
0.0416666666666667
100
AcDbArc
 50
89.9999999999999858
 51
270.0
  0
ARC
  5
154
100
AcDbEntity
  8
exhaust
 62
20
370
0
  6
CONTINUOUS
100
AcDbCircle
 10
0.4583336666666641
 20
-6.3333333333333286
 30
0.0
 40
0.0416666666666667
100
AcDbArc
 50
270.0
 51
89.9999999999999858
  0
ARC
  5
155
100
AcDbEntity
  8
exhaust
 62
20
370
0
  6
CONTINUOUS
100
AcDbCircle
 10
0.4583336666666625
 20
-6.2499999999999947
 30
0.0
 40
0.0416666666666667
100
AcDbArc
 50
89.9999999999999858
 51
270.0
  0
ARC
  5
156
100
AcDbEntity
  8
exhaust
 62
20
370
0
  6
CONTINUOUS
100
AcDbCircle
 10
0.458333666666665
 20
-6.1666666666666607
 30
0.0
 40
0.0416666666666667
100
AcDbArc
 50
270.0
 51
89.9999999999999858
  0
ARC
  5
157
100
AcDbEntity
  8
exhaust
 62
20
370
0
  6
CONTINUOUS
100
AcDbCircle
 10
0.4583336666666658
 20
-6.0833333333333268
 30
0.0
 40
0.0416666666666667
100
AcDbArc
 50
89.9999999999999858
 51
270.0
  0
ARC
  5
158
100
AcDbEntity
  8
exhaust
 62
20
370
0
  6
CONTINUOUS
100
AcDbCircle
 10
0.458333666666664
 20
-5.9999999999999929
 30
0.0
 40
0.0416666666666667
100
AcDbArc
 50
270.0
 51
89.9999999999999858
  0
ARC
  5
159
100
AcDbEntity
  8
exhaust
 62
20
370
0
  6
CONTINUOUS
100
AcDbCircle
 10
0.4583336666666635
 20
-5.916666666666659
 30
0.0
 40
0.0416666666666667
100
AcDbArc
 50
89.9999999999999858
 51
270.0
  0
ARC
  5
15A
100
AcDbEntity
  8
exhaust
 62
20
370
0
  6
CONTINUOUS
100
AcDbCircle
 10
0.4583336666666664
 20
-5.833333333333325
 30
0.0
 40
0.0416666666666667
100
AcDbArc
 50
270.0
 51
89.9999999999999858
  0
ARC
  5
15B
100
AcDbEntity
  8
exhaust
 62
20
370
0
  6
CONTINUOUS
100
AcDbCircle
 10
0.458333666666668
 20
-5.7499999999999911
 30
0.0
 40
0.0416666666666667
100
AcDbArc
 50
89.9999999999999858
 51
270.0
  0
ARC
  5
15C
100
AcDbEntity
  8
exhaust
 62
20
370
0
  6
CONTINUOUS
100
AcDbCircle
 10
0.4583336666666634
 20
-5.6666666666666572
 30
0.0
 40
0.0416666666666667
100
AcDbArc
 50
270.0
 51
89.9999999999999858
  0
ARC
  5
15D
100
AcDbEntity
  8
exhaust
 62
20
370
0
  6
CONTINUOUS
100
AcDbCircle
 10
0.4583336666666671
 20
-5.5833333333333233
 30
0.0
 40
0.0416666666666667
100
AcDbArc
 50
89.9999999999999858
 51
270.0
  0
ARC
  5
15E
100
AcDbEntity
  8
exhaust
 62
20
370
0
  6
CONTINUOUS
100
AcDbCircle
 10
0.4583336666666656
 20
-5.4999999999999893
 30
0.0
 40
0.0416666666666667
100
AcDbArc
 50
270.0
 51
89.9999999999999858
  0
ARC
  5
15F
100
AcDbEntity
  8
exhaust
 62
20
370
0
  6
CONTINUOUS
100
AcDbCircle
 10
0.4583336666666685
 20
-5.4166666666666545
 30
0.0
 40
0.0416666666666667
100
AcDbArc
 50
89.9999999999999858
 51
270.0
  0
ARC
  5
160
100
AcDbEntity
  8
exhaust
 62
20
370
0
  6
CONTINUOUS
100
AcDbCircle
 10
0.4583336666666665
 20
-5.3333333333333206
 30
0.0
 40
0.0416666666666667
100
AcDbArc
 50
270.0
 51
89.9999999999999858
  0
ARC
  5
161
100
AcDbEntity
  8
exhaust
 62
20
370
0
  6
CONTINUOUS
100
AcDbCircle
 10
0.4583336666666651
 20
-5.2499999999999885
 30
0.0
 40
0.0416666666666667
100
AcDbArc
 50
89.9999999999999858
 51
270.0
  0
ARC
  5
162
100
AcDbEntity
  8
exhaust
 62
20
370
0
  6
CONTINUOUS
100
AcDbCircle
 10
0.4583336666666644
 20
-5.1666666666666545
 30
0.0
 40
0.0416666666666667
100
AcDbArc
 50
270.0
 51
89.9999999999999858
  0
ARC
  5
163
100
AcDbEntity
  8
exhaust
 62
20
370
0
  6
CONTINUOUS
100
AcDbCircle
 10
0.458333666666666
 20
-5.0833333333333197
 30
0.0
 40
0.0416666666666667
100
AcDbArc
 50
89.9999999999999858
 51
270.0
  0
ARC
  5
164
100
AcDbEntity
  8
exhaust
 62
20
370
0
  6
CONTINUOUS
100
AcDbCircle
 10
0.4583336666666639
 20
-4.9999999999999858
 30
0.0
 40
0.0416666666666667
100
AcDbArc
 50
270.0
 51
89.9999999999999858
  0
ARC
  5
165
100
AcDbEntity
  8
exhaust
 62
20
370
0
  6
CONTINUOUS
100
AcDbCircle
 10
0.458333666666665
 20
-4.9166666666666519
 30
0.0
 40
0.0416666666666667
100
AcDbArc
 50
89.9999999999999858
 51
270.0
  0
ARC
  5
166
100
AcDbEntity
  8
exhaust
 62
20
370
0
  6
CONTINUOUS
100
AcDbCircle
 10
0.4583336666666676
 20
-4.8333333333333179
 30
0.0
 40
0.0416666666666667
100
AcDbArc
 50
270.0
 51
89.9999999999999858
  0
ARC
  5
167
100
AcDbEntity
  8
exhaust
 62
20
370
0
  6
CONTINUOUS
100
AcDbCircle
 10
0.4583336666666672
 20
-4.749999999999984
 30
0.0
 40
0.0416666666666667
100
AcDbArc
 50
89.9999999999999858
 51
270.0
  0
ARC
  5
168
100
AcDbEntity
  8
exhaust
 62
20
370
0
  6
CONTINUOUS
100
AcDbCircle
 10
0.4583336666666651
 20
-4.6666666666666501
 30
0.0
 40
0.0416666666666667
100
AcDbArc
 50
270.0
 51
89.9999999999999858
  0
ARC
  5
169
100
AcDbEntity
  8
exhaust
 62
20
370
0
  6
CONTINUOUS
100
AcDbCircle
 10
0.4583336666666659
 20
-4.5833333333333162
 30
0.0
 40
0.0416666666666667
100
AcDbArc
 50
89.9999999999999858
 51
270.0
  0
ARC
  5
16A
100
AcDbEntity
  8
exhaust
 62
20
370
0
  6
CONTINUOUS
100
AcDbCircle
 10
0.4583336666666644
 20
-4.4999999999999822
 30
0.0
 40
0.0416666666666667
100
AcDbArc
 50
270.0
 51
89.9999999999999858
  0
ARC
  5
16B
100
AcDbEntity
  8
exhaust
 62
20
370
0
  6
CONTINUOUS
100
AcDbCircle
 10
0.4583336666666654
 20
-4.4166666666666483
 30
0.0
 40
0.0416666666666667
100
AcDbArc
 50
89.9999999999999858
 51
270.0
  0
ARC
  5
16C
100
AcDbEntity
  8
exhaust
 62
20
370
0
  6
CONTINUOUS
100
AcDbCircle
 10
0.4583336666666673
 20
-4.3333333333333144
 30
0.0
 40
0.0416666666666667
100
AcDbArc
 50
270.0
 51
89.9999999999999858
  0
ARC
  5
16D
100
AcDbEntity
  8
exhaust
 62
20
370
0
  6
CONTINUOUS
100
AcDbCircle
 10
0.4583336666666669
 20
-4.2499999999999805
 30
0.0
 40
0.0416666666666667
100
AcDbArc
 50
89.9999999999999858
 51
270.0
  0
ARC
  5
16E
100
AcDbEntity
  8
exhaust
 62
20
370
0
  6
CONTINUOUS
100
AcDbCircle
 10
0.4583336666666664
 20
-4.1666666666666465
 30
0.0
 40
0.0416666666666667
100
AcDbArc
 50
270.0
 51
89.9999999999999858
  0
ARC
  5
16F
100
AcDbEntity
  8
exhaust
 62
20
370
0
  6
CONTINUOUS
100
AcDbCircle
 10
0.4583336666666653
 20
-4.0833333333333126
 30
0.0
 40
0.0416666666666667
100
AcDbArc
 50
89.9999999999999858
 51
270.0
  0
ARC
  5
170
100
AcDbEntity
  8
exhaust
 62
20
370
0
  6
CONTINUOUS
100
AcDbCircle
 10
0.4583336666666637
 20
-3.9999999999999787
 30
0.0
 40
0.0416666666666667
100
AcDbArc
 50
270.0
 51
89.9999999999999858
  0
ARC
  5
171
100
AcDbEntity
  8
exhaust
 62
20
370
0
  6
CONTINUOUS
100
AcDbCircle
 10
0.458333666666664
 20
-3.9166666666666456
 30
0.0
 40
0.0416666666666667
100
AcDbArc
 50
89.9999999999999858
 51
270.0
  0
ARC
  5
172
100
AcDbEntity
  8
exhaust
 62
20
370
0
  6
CONTINUOUS
100
AcDbCircle
 10
0.4583336666666651
 20
-3.8333333333333108
 30
0.0
 40
0.0416666666666667
100
AcDbArc
 50
270.0
 51
89.9999999999999858
  0
ARC
  5
173
100
AcDbEntity
  8
exhaust
 62
20
370
0
  6
CONTINUOUS
100
AcDbCircle
 10
0.4583336666666652
 20
-3.7499999999999769
 30
0.0
 40
0.0416666666666667
100
AcDbArc
 50
89.9999999999999858
 51
270.0
  0
ARC
  5
174
100
AcDbEntity
  8
exhaust
 62
20
370
0
  6
CONTINUOUS
100
AcDbCircle
 10
0.4583336666666666
 20
-3.666666666666643
 30
0.0
 40
0.0416666666666667
100
AcDbArc
 50
270.0
 51
89.9999999999999858
  0
ARC
  5
175
100
AcDbEntity
  8
exhaust
 62
20
370
0
  6
CONTINUOUS
100
AcDbCircle
 10
0.4583336666666665
 20
-3.5833333333333082
 30
0.0
 40
0.0416666666666667
100
AcDbArc
 50
89.9999999999999858
 51
270.0
  0
ARC
  5
176
100
AcDbEntity
  8
exhaust
 62
20
370
0
  6
CONTINUOUS
100
AcDbCircle
 10
0.4583336666666682
 20
-3.4999999999999751
 30
0.0
 40
0.0416666666666667
100
AcDbArc
 50
270.0
 51
89.9999999999999858
  0
ARC
  5
177
100
AcDbEntity
  8
exhaust
 62
20
370
0
  6
CONTINUOUS
100
AcDbCircle
 10
0.4583336666666664
 20
-3.4166666666666412
 30
0.0
 40
0.0416666666666667
100
AcDbArc
 50
89.9999999999999858
 51
270.0
  0
ARC
  5
178
100
AcDbEntity
  8
exhaust
 62
20
370
0
  6
CONTINUOUS
100
AcDbCircle
 10
0.4583336666666655
 20
-3.3333333333333073
 30
0.0
 40
0.0416666666666667
100
AcDbArc
 50
270.0
 51
89.9999999999999858
  0
ARC
  5
179
100
AcDbEntity
  8
exhaust
 62
20
370
0
  6
CONTINUOUS
100
AcDbCircle
 10
0.4583336666666664
 20
-3.2499999999999734
 30
0.0
 40
0.0416666666666667
100
AcDbArc
 50
89.9999999999999858
 51
270.0
  0
ARC
  5
17A
100
AcDbEntity
  8
exhaust
 62
20
370
0
  6
CONTINUOUS
100
AcDbCircle
 10
0.458333666666665
 20
-3.1666666666666394
 30
0.0
 40
0.0416666666666667
100
AcDbArc
 50
270.0
 51
89.9999999999999858
  0
ARC
  5
17B
100
AcDbEntity
  8
exhaust
 62
20
370
0
  6
CONTINUOUS
100
AcDbCircle
 10
0.458333666666666
 20
-3.0833333333333055
 30
0.0
 40
0.0416666666666667
100
AcDbArc
 50
89.9999999999999858
 51
270.0
  0
ARC
  5
17C
100
AcDbEntity
  8
exhaust
 62
20
370
0
  6
CONTINUOUS
100
AcDbCircle
 10
0.4583336666666657
 20
-2.9999999999999716
 30
0.0
 40
0.0416666666666667
100
AcDbArc
 50
270.0
 51
89.9999999999999858
  0
ARC
  5
17D
100
AcDbEntity
  8
exhaust
 62
20
370
0
  6
CONTINUOUS
100
AcDbCircle
 10
0.4583336666666658
 20
-2.9166666666666381
 30
0.0
 40
0.0416666666666667
100
AcDbArc
 50
89.9999999999999858
 51
270.0
  0
ARC
  5
17E
100
AcDbEntity
  8
exhaust
 62
20
370
0
  6
CONTINUOUS
100
AcDbCircle
 10
0.4583336666666655
 20
-2.8333333333333037
 30
0.0
 40
0.0416666666666667
100
AcDbArc
 50
270.0
 51
89.9999999999999858
  0
ARC
  5
17F
100
AcDbEntity
  8
exhaust
 62
20
370
0
  6
CONTINUOUS
100
AcDbCircle
 10
0.4583336666666646
 20
-2.7499999999999698
 30
0.0
 40
0.0416666666666667
100
AcDbArc
 50
89.9999999999999858
 51
270.0
  0
ARC
  5
180
100
AcDbEntity
  8
exhaust
 62
20
370
0
  6
CONTINUOUS
100
AcDbCircle
 10
0.4583336666666655
 20
-2.6666666666666359
 30
0.0
 40
0.0416666666666667
100
AcDbArc
 50
270.0
 51
89.9999999999999858
  0
ARC
  5
181
100
AcDbEntity
  8
exhaust
 62
20
370
0
  6
CONTINUOUS
100
AcDbCircle
 10
0.4583336666666659
 20
-2.583333333333302
 30
0.0
 40
0.0416666666666667
100
AcDbArc
 50
89.9999999999999858
 51
270.0
  0
ARC
  5
182
100
AcDbEntity
  8
exhaust
 62
20
370
0
  6
CONTINUOUS
100
AcDbCircle
 10
0.4583336666666655
 20
-2.499999999999968
 30
0.0
 40
0.0416666666666667
100
AcDbArc
 50
270.0
 51
89.9999999999999858
  0
ARC
  5
183
100
AcDbEntity
  8
exhaust
 62
20
370
0
  6
CONTINUOUS
100
AcDbCircle
 10
0.4583336666666648
 20
-2.4166666666666341
 30
0.0
 40
0.0416666666666667
100
AcDbArc
 50
89.9999999999999858
 51
270.0
  0
ARC
  5
184
100
AcDbEntity
  8
exhaust
 62
20
370
0
  6
CONTINUOUS
100
AcDbCircle
 10
0.4583336666666663
 20
-2.3333333333333002
 30
0.0
 40
0.0416666666666667
100
AcDbArc
 50
270.0
 51
89.9999999999999858
  0
ARC
  5
185
100
AcDbEntity
  8
exhaust
 62
20
370
0
  6
CONTINUOUS
100
AcDbCircle
 10
0.4583336666666658
 20
-2.2499999999999662
 30
0.0
 40
0.0416666666666667
100
AcDbArc
 50
89.9999999999999858
 51
270.0
  0
ARC
  5
186
100
AcDbEntity
  8
exhaust
 62
20
370
0
  6
CONTINUOUS
100
AcDbCircle
 10
0.458333666666665
 20
-2.1666666666666323
 30
0.0
 40
0.0416666666666667
100
AcDbArc
 50
270.0
 51
89.9999999999999858
  0
ARC
  5
187
100
AcDbEntity
  8
exhaust
 62
20
370
0
  6
CONTINUOUS
100
AcDbCircle
 10
0.4583336666666658
 20
-2.0833333333332984
 30
0.0
 40
0.0416666666666667
100
AcDbArc
 50
89.9999999999999858
 51
270.0
  0
ARC
  5
188
100
AcDbEntity
  8
exhaust
 62
20
370
0
  6
CONTINUOUS
100
AcDbCircle
 10
0.4583336666666666
 20
-1.9999999999999645
 30
0.0
 40
0.0416666666666667
100
AcDbArc
 50
270.0
 51
89.9999999999999858
  0
ARC
  5
189
100
AcDbEntity
  8
exhaust
 62
20
370
0
  6
CONTINUOUS
100
AcDbCircle
 10
0.4583336666666652
 20
-1.916666666666631
 30
0.0
 40
0.0416666666666667
100
AcDbArc
 50
89.9999999999999858
 51
270.0
  0
ARC
  5
18A
100
AcDbEntity
  8
exhaust
 62
20
370
0
  6
CONTINUOUS
100
AcDbCircle
 10
0.4583336666666653
 20
-1.8333333333332966
 30
0.0
 40
0.0416666666666667
100
AcDbArc
 50
270.0
 51
89.9999999999999858
  0
ARC
  5
18B
100
AcDbEntity
  8
exhaust
 62
20
370
0
  6
CONTINUOUS
100
AcDbCircle
 10
0.458333666666666
 20
-1.7499999999999627
 30
0.0
 40
0.0416666666666667
100
AcDbArc
 50
89.9999999999999858
 51
270.0
  0
ARC
  5
18C
100
AcDbEntity
  8
exhaust
 62
20
370
0
  6
CONTINUOUS
100
AcDbCircle
 10
0.4583336666666662
 20
-1.6666666666666288
 30
0.0
 40
0.0416666666666667
100
AcDbArc
 50
270.0
 51
89.9999999999999858
  0
ARC
  5
18D
100
AcDbEntity
  8
exhaust
 62
20
370
0
  6
CONTINUOUS
100
AcDbCircle
 10
0.4583336666666671
 20
-1.5833333333332948
 30
0.0
 40
0.0416666666666667
100
AcDbArc
 50
89.9999999999999858
 51
270.0
  0
ARC
  5
18E
100
AcDbEntity
  8
exhaust
 62
20
370
0
  6
CONTINUOUS
100
AcDbCircle
 10
0.4583336666666658
 20
-1.4999999999999609
 30
0.0
 40
0.0416666666666667
100
AcDbArc
 50
270.0
 51
89.9999999999999858
  0
ARC
  5
18F
100
AcDbEntity
  8
exhaust
 62
20
370
0
  6
CONTINUOUS
100
AcDbCircle
 10
0.4583336666666661
 20
-1.416666666666627
 30
0.0
 40
0.0416666666666667
100
AcDbArc
 50
89.9999999999999858
 51
270.0
  0
ARC
  5
190
100
AcDbEntity
  8
exhaust
 62
20
370
0
  6
CONTINUOUS
100
AcDbCircle
 10
0.4583336666666665
 20
-1.3333333333332931
 30
0.0
 40
0.0416666666666667
100
AcDbArc
 50
270.0
 51
89.9999999999999858
  0
ARC
  5
191
100
AcDbEntity
  8
exhaust
 62
20
370
0
  6
CONTINUOUS
100
AcDbCircle
 10
0.4583336666666656
 20
-1.2499999999999591
 30
0.0
 40
0.0416666666666667
100
AcDbArc
 50
89.9999999999999858
 51
270.0
  0
ARC
  5
192
100
AcDbEntity
  8
exhaust
 62
20
370
0
  6
CONTINUOUS
100
AcDbCircle
 10
0.4583336666666664
 20
-1.1666666666666252
 30
0.0
 40
0.0416666666666667
100
AcDbArc
 50
270.0
 51
89.9999999999999858
  0
ARC
  5
193
100
AcDbEntity
  8
exhaust
 62
20
370
0
  6
CONTINUOUS
100
AcDbCircle
 10
0.4583336666666674
 20
-1.0833333333332911
 30
0.0
 40
0.0416666666666667
100
AcDbArc
 50
89.9999999999999858
 51
270.0
  0
ARC
  5
194
100
AcDbEntity
  8
exhaust
 62
20
370
0
  6
CONTINUOUS
100
AcDbCircle
 10
0.4583336666666668
 20
-0.9999999999999574
 30
0.0
 40
0.0416666666666667
100
AcDbArc
 50
270.0
 51
89.9999999999999858
  0
ARC
  5
195
100
AcDbEntity
  8
exhaust
 62
20
370
0
  6
CONTINUOUS
100
AcDbCircle
 10
0.4583336666666661
 20
-0.9166666666666234
 30
0.0
 40
0.0416666666666667
100
AcDbArc
 50
89.9999999999999858
 51
270.0
  0
ARC
  5
196
100
AcDbEntity
  8
exhaust
 62
20
370
0
  6
CONTINUOUS
100
AcDbCircle
 10
0.4583336666666661
 20
-0.8333333333332897
 30
0.0
 40
0.0416666666666667
100
AcDbArc
 50
270.0
 51
89.9999999999999858
  0
ARC
  5
197
100
AcDbEntity
  8
exhaust
 62
20
370
0
  6
CONTINUOUS
100
AcDbCircle
 10
0.4583336666666661
 20
-0.7499999999999556
 30
0.0
 40
0.0416666666666667
100
AcDbArc
 50
89.9999999999999858
 51
270.0
  0
ARC
  5
198
100
AcDbEntity
  8
exhaust
 62
20
370
0
  6
CONTINUOUS
100
AcDbCircle
 10
0.458333666666666
 20
-0.6666666666666219
 30
0.0
 40
0.0416666666666667
100
AcDbArc
 50
270.0
 51
89.9999999999999858
  0
ARC
  5
199
100
AcDbEntity
  8
exhaust
 62
20
370
0
  6
CONTINUOUS
100
AcDbCircle
 10
0.4583336666666663
 20
-0.5833333333332877
 30
0.0
 40
0.0416666666666667
100
AcDbArc
 50
89.9999999999999858
 51
270.0
  0
ARC
  5
19A
100
AcDbEntity
  8
exhaust
 62
20
370
0
  6
CONTINUOUS
100
AcDbCircle
 10
0.4583336666666662
 20
-0.4999999999999538
 30
0.0
 40
0.0416666666666667
100
AcDbArc
 50
270.0
 51
89.9999999999999858
  0
ARC
  5
19B
100
AcDbEntity
  8
exhaust
 62
20
370
0
  6
CONTINUOUS
100
AcDbCircle
 10
0.4583336666666668
 20
-0.4166666666666198
 30
0.0
 40
0.0416666666666667
100
AcDbArc
 50
89.9999999999999858
 51
270.0
  0
ARC
  5
19C
100
AcDbEntity
  8
exhaust
 62
20
370
0
  6
CONTINUOUS
100
AcDbCircle
 10
0.4583336666666669
 20
-0.333333333333286
 30
0.0
 40
0.0416666666666667
100
AcDbArc
 50
270.0
 51
89.9999999999999858
  0
ARC
  5
19D
100
AcDbEntity
  8
exhaust
 62
20
370
0
  6
CONTINUOUS
100
AcDbCircle
 10
0.4583336666666665
 20
-0.249999999999952
 30
0.0
 40
0.0416666666666667
100
AcDbArc
 50
89.9999999999999858
 51
270.0
  0
ARC
  5
19E
100
AcDbEntity
  8
exhaust
 62
20
370
0
  6
CONTINUOUS
100
AcDbCircle
 10
0.4583336666666665
 20
-0.1666666666666181
 30
0.0
 40
0.0416666666666667
100
AcDbArc
 50
270.0
 51
89.9999999999999858
  0
ARC
  5
19F
100
AcDbEntity
  8
exhaust
 62
20
370
0
  6
CONTINUOUS
100
AcDbCircle
 10
0.4583336666666664
 20
-0.0833333333332843
 30
0.0
 40
0.0416666666666667
100
AcDbArc
 50
89.9999999999999858
 51
270.0
  0
ARC
  5
1A0
100
AcDbEntity
  8
exhaust
 62
20
370
0
  6
CONTINUOUS
100
AcDbCircle
 10
0.4583336666666666
 20
0.0000000000000497
 30
0.0
 40
0.0416666666666667
100
AcDbArc
 50
270.0
 51
360.0
  0
LINE
  5
1A1
100
AcDbEntity
100
AcDbLine
  8
intake
 62
256
370
-1
  6
ByLayer
 10
0.1250001666666667
 20
0.166667
 30
0.0
 11
0.1250001666666667
 21
0.2083337
 31
0.0
  0
LINE
  5
1A2
100
AcDbEntity
100
AcDbLine
  8
intake
 62
256
370
-1
  6
ByLayer
 10
0.2916668333333333
 20
0.166667
 30
0.0
 11
0.2916668333333333
 21
0.2083337
 31
0.0
  0
LINE
  5
1A3
100
AcDbEntity
100
AcDbLine
  8
intake
 62
256
370
-1
  6
ByLayer
 10
0.1250001666666667
 20
0.2083337
 30
0.0
 11
-0.2500003333333333
 21
0.166667
 31
0.0
  0
LINE
  5
1A4
100
AcDbEntity
100
AcDbLine
  8
intake
 62
256
370
-1
  6
ByLayer
 10
0.2916668333333333
 20
0.2083337
 30
0.0
 11
0.6666673333333333
 21
0.166667
 31
0.0
  0
LINE
  5
1A5
100
AcDbEntity
100
AcDbLine
  8
exhaust
 62
256
370
-1
  6
ByLayer
 10
0.416667
 20
0.0
 30
0.0
 11
0.416667
 21
0.0833333333333333
 31
0.0
  0
LINE
  5
1A6
100
AcDbEntity
100
AcDbLine
  8
exhaust
 62
256
370
-1
  6
ByLayer
 10
0.0
 20
0.0
 30
0.0
 11
0.0
 21
0.0833333333333333
 31
0.0
  0
LINE
  5
1A7
100
AcDbEntity
100
AcDbLine
  8
intake
 62
256
370
-1
  6
ByLayer
 10
0.2083335
 20
0.5092592543209943
 30
0.0
 11
0.6666673333333333
 21
0.4583333
 31
0.0
  0
LINE
  5
1A8
100
AcDbEntity
100
AcDbLine
  8
intake
 62
256
370
-1
  6
ByLayer
 10
0.2083335
 20
0.5092592543209943
 30
0.0
 11
-0.2500003333333333
 21
0.4583333
 31
0.0
  0
LINE
  5
1A9
100
AcDbEntity
100
AcDbLine
  8
firebox
 62
256
370
-1
  6
ByLayer
 10
0.4166669999999962
 20
-7.0
 30
0.0
 11
1.4166669999999963
 21
-7.0
 31
0.0
  0
LINE
  5
1AA
100
AcDbEntity
100
AcDbLine
  8
firebox
 62
256
370
-1
  6
ByLayer
 10
0.0
 20
-7.0
 30
0.0
 11
-1.0
 21
-7.0
 31
0.0
  0
LINE
  5
1AB
100
AcDbEntity
100
AcDbLine
  8
firebox
 62
256
370
-1
  6
ByLayer
 10
1.4166669999999963
 20
-7.0
 30
0.0
 11
1.4166669999999963
 21
-8.0
 31
0.0
  0
LINE
  5
1AC
100
AcDbEntity
100
AcDbLine
  8
firebox
 62
256
370
-1
  6
ByLayer
 10
-1.0
 20
-7.0
 30
0.0
 11
-1.0
 21
-8.0
 31
0.0
  0
LINE
  5
1AD
100
AcDbEntity
100
AcDbLine
  8
intake
 62
256
370
-1
  6
ByLayer
 10
0.1250001666666667
 20
-8.0
 30
0.0
 11
0.1250001666666667
 21
0.425925920987661
 31
0.0
  0
LINE
  5
1AE
100
AcDbEntity
100
AcDbLine
  8
intake
 62
256
370
-1
  6
ByLayer
 10
0.2916668333333333
 20
-8.0
 30
0.0
 11
0.2916668333333333
 21
0.425925920987661
 31
0.0
  0
LINE
  5
1AF
100
AcDbEntity
100
AcDbLine
  8
firebox
 62
256
370
-1
  6
DASHED
 10
0.125
 20
-8.0
 30
0.0
 11
-1.0
 21
-8.0
 31
0.0
  0
LINE
  5
1B0
100
AcDbEntity
100
AcDbLine
  8
firebox
 62
256
370
-1
  6
DASHED
 10
0.291667
 20
-8.0
 30
0.0
 11
1.4166700000000001
 21
-8.0
 31
0.0
  0
LINE
  5
1B1
100
AcDbEntity
100
AcDbLine
  8
firebox
 62
256
370
-1
  6
ByLayer
 10
-1.0
 20
-8.0
 30
0.0
 11
-1.0
 21
-8.4999999666666657
 31
0.0
  0
LINE
  5
1B2
100
AcDbEntity
100
AcDbLine
  8
firebox
 62
256
370
-1
  6
ByLayer
 10
1.4166669999999963
 20
-8.0
 30
0.0
 11
1.4166669999999963
 21
-8.4999999666666657
 31
0.0
  0
LINE
  5
1B3
100
AcDbEntity
100
AcDbLine
  8
firebox
 62
256
370
-1
  6
ByLayer
 10
-1.0
 20
-8.4999999666666657
 30
0.0
 11
1.4166669999999963
 21
-8.4999999666666657
 31
0.0
  0
ENDSEC
  0
SECTION
  2
OBJECTS
  0
DICTIONARY
  5
C
100
AcDbDictionary
280
0
281
1
  3
ACAD_GROUP
350
D
  3
ACAD_LAYOUT
350
1A
  3
ACAD_MLINESTYLE
350
17
  3
ACAD_PLOTSETTINGS
350
19
  3
ACAD_PLOTSTYLENAME
350
E
  3
AcDbVariableDictionary
350
1B4
  0
DICTIONARY
  5
D
100
AcDbDictionary
280
0
281
1
  0
ACDBDICTIONARYWDFLT
  5
E
100
AcDbDictionary
281
1
  3
Normal
350
F
100
AcDbDictionaryWithDefault
340
F
  0
ACDBPLACEHOLDER
  5
F
  0
DICTIONARY
  5
17
100
AcDbDictionary
280
0
281
1
  3
Standard
350
18
  0
MLINESTYLE
  5
18
100
AcDbMlineStyle
  2
STANDARD
 70
0
  3

 62
256
 51
90.0
 52
90.0
 71
2
 49
0.5
 62
256
  6
BYLAYER
 49
-0.5
 62
256
  6
BYLAYER
  0
DICTIONARY
  5
19
100
AcDbDictionary
280
0
281
1
  0
DICTIONARY
  5
1A
100
AcDbDictionary
281
1
  3
Layout1
350
1E
  3
Layout2
350
26
  3
Model
350
22
  0
LAYOUT
  5
1E
100
AcDbPlotSettings
  1

  2
C:\Program Files\AutoCAD 2002\plotters\DWF ePlot (optimized for plotting).pc3
  4

  6

 40
0.0
 41
0.0
 42
0.0
 43
0.0
 44
0.0
 45
0.0
 46
0.0
 47
0.0
 48
0.0
 49
0.0
140
0.0
141
0.0
142
1.0
143
1.0
 70
688
 72
0
 73
0
 74
5
  7

 75
16
147
1.0
148
0.0
149
0.0
100
AcDbLayout
  1
Layout1
 70
1
 71
1
 10
0.0
 20
0.0
 11
420.0
 21
297.0
 12
0.0
 22
0.0
 32
0.0
 14
100000000000000000000.0
 24
100000000000000000000.0
 34
100000000000000000000.0
 15
-100000000000000000000.0
 25
-100000000000000000000.0
 35
-100000000000000000000.0
146
0.0
 13
0.0
 23
0.0
 33
0.0
 16
1.0
 26
0.0
 36
0.0
 17
0.0
 27
1.0
 37
0.0
 76
0
330
1B
  0
LAYOUT
  5
22
100
AcDbPlotSettings
  1

  2
C:\Program Files\AutoCAD 2002\plotters\DWF ePlot (optimized for plotting).pc3
  4

  6

 40
0.0
 41
0.0
 42
0.0
 43
0.0
 44
0.0
 45
0.0
 46
0.0
 47
0.0
 48
0.0
 49
0.0
140
0.0
141
0.0
142
1.0
143
1.0
 70
1712
 72
0
 73
0
 74
0
  7

 75
0
147
1.0
148
0.0
149
0.0
100
AcDbLayout
  1
Model
 70
1
 71
0
 10
0.0
 20
0.0
 11
12.0
 21
9.0
 12
0.0
 22
0.0
 32
0.0
 14
0.0
 24
0.0
 34
0.0
 15
0.0
 25
0.0
 35
0.0
146
0.0
 13
0.0
 23
0.0
 33
0.0
 16
1.0
 26
0.0
 36
0.0
 17
0.0
 27
1.0
 37
0.0
 76
0
330
1F
  0
LAYOUT
  5
26
100
AcDbPlotSettings
  1

  2
C:\Program Files\AutoCAD 2002\plotters\DWF ePlot (optimized for plotting).pc3
  4

  6

 40
0.0
 41
0.0
 42
0.0
 43
0.0
 44
0.0
 45
0.0
 46
0.0
 47
0.0
 48
0.0
 49
0.0
140
0.0
141
0.0
142
1.0
143
1.0
 70
688
 72
0
 73
0
 74
5
  7

 75
16
147
1.0
148
0.0
149
0.0
100
AcDbLayout
  1
Layout2
 70
1
 71
2
 10
0.0
 20
0.0
 11
12.0
 21
9.0
 12
0.0
 22
0.0
 32
0.0
 14
0.0
 24
0.0
 34
0.0
 15
0.0
 25
0.0
 35
0.0
146
0.0
 13
0.0
 23
0.0
 33
0.0
 16
1.0
 26
0.0
 36
0.0
 17
0.0
 27
1.0
 37
0.0
 76
0
330
23
  0
DICTIONARY
  5
1B4
100
AcDbDictionary
281
1
  3
DIMASSOC
350
1B6
  3
HIDETEXT
350
1B5
  0
DICTIONARYVAR
  5
1B5
100
DictionaryVariables
280
0
  1
2
  0
DICTIONARYVAR
  5
1B6
100
DictionaryVariables
280
0
  1
1
  0
ENDSEC
  0
EOF
