999
dxflib 2.2.0.0
  0
SECTION
  2
HEADER
  9
$ACADVER
  1
AC1015
  9
$HANDSEED
  5
FFFF
  9
$DIMASZ
 40
2.5
  9
$PLIMMIN
 10
0.0
 20
0.0
  9
$DIMEXE
 40
1.25
  9
$DIMGAP
 40
0.625
  9
$PLIMMAX
 10
210.0
 20
297.0
  9
$INSUNITS
 70
4
  9
$DIMEXO
 40
0.625
  9
$DIMTXT
 40
2.5
  0
ENDSEC
  0
SECTION
  2
TABLES
  0
TABLE
  2
VPORT
  5
8
100
AcDbSymbolTable
 70
1
  0
VPORT
  5
30
100
AcDbSymbolTableRecord
100
AcDbViewportTableRecord
  2
*Active
 70
0
 10
0.0
 20
0.0
 11
1.0
 21
1.0
 12
286.3055555555554861
 22
148.5
 13
0.0
 23
0.0
 14
10.0
 24
10.0
 15
10.0
 25
10.0
 16
0.0
 26
0.0
 36
1.0
 17
0.0
 27
0.0
 37
0.0
 40
297.0
 41
1.92798353909465
 42
50.0
 43
0.0
 44
0.0
 50
0.0
 51
0.0
 71
0
 72
100
 73
1
 74
3
 75
1
 76
1
 77
0
 78
0
281
0
 65
1
110
0.0
120
0.0
130
0.0
111
1.0
121
0.0
131
0.0
112
0.0
122
1.0
132
0.0
 79
0
146
0.0
  0
ENDTAB
  0
TABLE
  2
LTYPE
  5
5
100
AcDbSymbolTable
 70
21
  0
LTYPE
  5
14
100
AcDbSymbolTableRecord
100
AcDbLinetypeTableRecord
  2
ByBlock
 70
0
  3

 72
65
 73
0
 40
0.0
  0
LTYPE
  5
15
100
AcDbSymbolTableRecord
100
AcDbLinetypeTableRecord
  2
ByLayer
 70
0
  3

 72
65
 73
0
 40
0.0
  0
LTYPE
  5
16
100
AcDbSymbolTableRecord
100
AcDbLinetypeTableRecord
  2
CONTINUOUS
 70
0
  3
Solid line
 72
65
 73
0
 40
0.0
  0
LTYPE
  5
31
100
AcDbSymbolTableRecord
100
AcDbLinetypeTableRecord
  2
DOT
 70
0
  3
Dot . . . . . . . . . . . . . . . . . . . . . .
 72
65
 73
2
 40
6.3499999999999996
 49
0.0
 74
0
 49
-6.3499999999999996
 74
0
  0
LTYPE
  5
32
100
AcDbSymbolTableRecord
100
AcDbLinetypeTableRecord
  2
DOT2
 70
0
  3
Dot (.5x) .....................................
 72
65
 73
2
 40
3.1749999999999998
 49
0.0
 74
0
 49
-3.1749999999999998
 74
0
  0
LTYPE
  5
33
100
AcDbSymbolTableRecord
100
AcDbLinetypeTableRecord
  2
DOTX2
 70
0
  3
Dot (2x) .  .  .  .  .  .  .  .  .  .  .  .  .
 72
65
 73
2
 40
12.6999999999999993
 49
0.0
 74
0
 49
-12.6999999999999993
 74
0
  0
LTYPE
  5
34
100
AcDbSymbolTableRecord
100
AcDbLinetypeTableRecord
  2
DASHED
 70
0
  3
Dashed __ __ __ __ __ __ __ __ __ __ __ __ __ _
 72
65
 73
2
 40
19.0500000000000007
 49
12.6999999999999993
 74
0
 49
-6.3499999999999996
 74
0
  0
LTYPE
  5
35
100
AcDbSymbolTableRecord
100
AcDbLinetypeTableRecord
  2
DASHED2
 70
0
  3
Dashed (.5x) _ _ _ _ _ _ _ _ _ _ _ _ _ _ _ _ _
 72
65
 73
2
 40
9.5250000000000004
 49
6.3499999999999996
 74
0
 49
-3.1749999999999998
 74
0
  0
LTYPE
  5
36
100
AcDbSymbolTableRecord
100
AcDbLinetypeTableRecord
  2
DASHEDX2
 70
0
  3
Dashed (2x) ____  ____  ____  ____  ____  ___
 72
65
 73
2
 40
38.1000000000000014
 49
25.3999999999999986
 74
0
 49
-12.6999999999999993
 74
0
  0
LTYPE
  5
37
100
AcDbSymbolTableRecord
100
AcDbLinetypeTableRecord
  2
DASHDOT
 70
0
  3
Dash dot __ . __ . __ . __ . __ . __ . __ . __
 72
65
 73
4
 40
25.3999999999999986
 49
12.6999999999999993
 74
0
 49
-6.3499999999999996
 74
0
 49
0.0
 74
0
 49
-6.3499999999999996
 74
0
  0
LTYPE
  5
38
100
AcDbSymbolTableRecord
100
AcDbLinetypeTableRecord
  2
DASHDOT2
 70
0
  3
Dash dot (.5x) _._._._._._._._._._._._._._._.
 72
65
 73
4
 40
12.6999999999999993
 49
6.3499999999999996
 74
0
 49
-3.1749999999999998
 74
0
 49
0.0
 74
0
 49
-3.1749999999999998
 74
0
  0
LTYPE
  5
39
100
AcDbSymbolTableRecord
100
AcDbLinetypeTableRecord
  2
DASHDOTX2
 70
0
  3
Dash dot (2x) ____  .  ____  .  ____  .  ___
 72
65
 73
4
 40
50.7999999999999972
 49
25.3999999999999986
 74
0
 49
-12.6999999999999993
 74
0
 49
0.0
 74
0
 49
-12.6999999999999993
 74
0
  0
LTYPE
  5
3A
100
AcDbSymbolTableRecord
100
AcDbLinetypeTableRecord
  2
DIVIDE
 70
0
  3
Divide ____ . . ____ . . ____ . . ____ . . ____
 72
65
 73
6
 40
31.75
 49
12.6999999999999993
 74
0
 49
-6.3499999999999996
 74
0
 49
0.0
 74
0
 49
-6.3499999999999996
 74
0
 49
0.0
 74
0
 49
-6.3499999999999996
 74
0
  0
LTYPE
  5
3B
100
AcDbSymbolTableRecord
100
AcDbLinetypeTableRecord
  2
DIVIDE2
 70
0
  3
Divide (.5x) __..__..__..__..__..__..__..__.._
 72
65
 73
6
 40
15.875
 49
6.3499999999999996
 74
0
 49
-3.1749999999999998
 74
0
 49
0.0
 74
0
 49
-3.1749999999999998
 74
0
 49
0.0
 74
0
 49
-3.1749999999999998
 74
0
  0
LTYPE
  5
3C
100
AcDbSymbolTableRecord
100
AcDbLinetypeTableRecord
  2
DIVIDEX2
 70
0
  3
Divide (2x) ________  .  .  ________  .  .  _
 72
65
 73
6
 40
63.5
 49
25.3999999999999986
 74
0
 49
-12.6999999999999993
 74
0
 49
0.0
 74
0
 49
-12.6999999999999993
 74
0
 49
0.0
 74
0
 49
-12.6999999999999993
 74
0
  0
LTYPE
  5
3D
100
AcDbSymbolTableRecord
100
AcDbLinetypeTableRecord
  2
CENTER
 70
0
  3
Center ____ _ ____ _ ____ _ ____ _ ____ _ ____
 72
65
 73
4
 40
50.7999999999999972
 49
31.75
 74
0
 49
-6.3499999999999996
 74
0
 49
6.3499999999999996
 74
0
 49
-6.3499999999999996
 74
0
  0
LTYPE
  5
3E
100
AcDbSymbolTableRecord
100
AcDbLinetypeTableRecord
  2
CENTER2
 70
0
  3
Center (.5x) ___ _ ___ _ ___ _ ___ _ ___ _ ___
 72
65
 73
4
 40
28.5749999999999993
 49
19.0500000000000007
 74
0
 49
-3.1749999999999998
 74
0
 49
3.1749999999999998
 74
0
 49
-3.1749999999999998
 74
0
  0
LTYPE
  5
3F
100
AcDbSymbolTableRecord
100
AcDbLinetypeTableRecord
  2
CENTERX2
 70
0
  3
Center (2x) ________  __  ________  __  _____
 72
65
 73
4
 40
101.5999999999999943
 49
63.5
 74
0
 49
-12.6999999999999993
 74
0
 49
12.6999999999999993
 74
0
 49
-12.6999999999999993
 74
0
  0
LTYPE
  5
40
100
AcDbSymbolTableRecord
100
AcDbLinetypeTableRecord
  2
BORDER
 70
0
  3
Border __ __ . __ __ . __ __ . __ __ . __ __ .
 72
65
 73
6
 40
44.4500000000000028
 49
12.6999999999999993
 74
0
 49
-6.3499999999999996
 74
0
 49
12.6999999999999993
 74
0
 49
-6.3499999999999996
 74
0
 49
0.0
 74
0
 49
-6.3499999999999996
 74
0
  0
LTYPE
  5
41
100
AcDbSymbolTableRecord
100
AcDbLinetypeTableRecord
  2
BORDER2
 70
0
  3
Border (.5x) __.__.__.__.__.__.__.__.__.__.__.
 72
65
 73
6
 40
22.2250000000000014
 49
6.3499999999999996
 74
0
 49
-3.1749999999999998
 74
0
 49
6.3499999999999996
 74
0
 49
-3.1749999999999998
 74
0
 49
0.0
 74
0
 49
-3.1749999999999998
 74
0
  0
LTYPE
  5
42
100
AcDbSymbolTableRecord
100
AcDbLinetypeTableRecord
  2
BORDERX2
 70
0
  3
Border (2x) ____  ____  .  ____  ____  .  ___
 72
65
 73
6
 40
88.9000000000000057
 49
25.3999999999999986
 74
0
 49
-12.6999999999999993
 74
0
 49
25.3999999999999986
 74
0
 49
-12.6999999999999993
 74
0
 49
0.0
 74
0
 49
-12.6999999999999993
 74
0
  0
ENDTAB
  0
TABLE
  2
LAYER
  5
2
100
AcDbSymbolTable
 70
3
  0
LAYER
  5
10
100
AcDbSymbolTableRecord
100
AcDbLayerTableRecord
  2
0
 70
1
 62
7
  6
CONTINUOUS
290
1
370
0
390
F
  0
LAYER
  5
43
100
AcDbSymbolTableRecord
100
AcDbLayerTableRecord
  2
ref
 70
1
 62
2
  6
CONTINUOUS
290
1
370
0
390
F
  0
LAYER
  5
44
100
AcDbSymbolTableRecord
100
AcDbLayerTableRecord
  2
1
 70
0
 62
5
  6
CONTINUOUS
290
1
370
0
390
F
  0
ENDTAB
  0
TABLE
  2
STYLE
  5
3
100
AcDbSymbolTable
 70
1
  0
STYLE
  5
11
100
AcDbSymbolTableRecord
100
AcDbTextStyleTableRecord
  2
Standard
 70
0
 40
0.0
 41
0.75
 50
0.0
 71
0
 42
2.5
  3
txt
  4

  0
ENDTAB
  0
TABLE
  2
VIEW
  5
6
100
AcDbSymbolTable
 70
0
  0
ENDTAB
  0
TABLE
  2
UCS
  5
7
100
AcDbSymbolTable
 70
0
  0
ENDTAB
  0
TABLE
  2
APPID
  5
9
100
AcDbSymbolTable
 70
1
  0
APPID
  5
12
100
AcDbSymbolTableRecord
100
AcDbRegAppTableRecord
  2
ACAD
 70
0
  0
ENDTAB
  0
TABLE
  2
DIMSTYLE
  5
A
100
AcDbSymbolTable
 70
1
100
AcDbDimStyleTable
 71
0
  0
DIMSTYLE
105
27
100
AcDbSymbolTableRecord
100
AcDbDimStyleTableRecord
  2
Standard
 41
2.5
 42
0.625
 43
3.75
 44
1.25
 70
0
 73
0
 74
0
 77
1
 78
8
140
2.5
141
2.5
143
0.03937007874016
147
0.625
171
3
172
1
271
2
272
2
274
3
278
44
283
0
284
8
340
11
  0
ENDTAB
  0
TABLE
  2
BLOCK_RECORD
  5
1
100
AcDbSymbolTable
 70
1
  0
BLOCK_RECORD
  5
1F
100
AcDbSymbolTableRecord
100
AcDbBlockTableRecord
  2
*Model_Space
340
22
  0
BLOCK_RECORD
  5
1B
100
AcDbSymbolTableRecord
100
AcDbBlockTableRecord
  2
*Paper_Space
340
1E
  0
BLOCK_RECORD
  5
23
100
AcDbSymbolTableRecord
100
AcDbBlockTableRecord
  2
*Paper_Space0
340
26
  0
ENDTAB
  0
ENDSEC
  0
SECTION
  2
BLOCKS
  0
BLOCK
  5
20
100
AcDbEntity
  8
0
100
AcDbBlockBegin
  2
*Model_Space
 70
0
 10
0.0
 20
0.0
 30
0.0
  3
*Model_Space
  1

  0
ENDBLK
  5
21
100
AcDbEntity
  8
0
100
AcDbBlockEnd
  0
BLOCK
  5
1C
100
AcDbEntity
 67
1
  8
0
100
AcDbBlockBegin
  2
*Paper_Space
 70
0
 10
0.0
 20
0.0
 30
0.0
  3
*Paper_Space
  1

  0
ENDBLK
  5
1D
100
AcDbEntity
 67
1
  8
0
100
AcDbBlockEnd
  0
BLOCK
  5
24
100
AcDbEntity
  8
0
100
AcDbBlockBegin
  2
*Paper_Space0
 70
0
 10
0.0
 20
0.0
 30
0.0
  3
*Paper_Space0
  1

  0
ENDBLK
  5
25
100
AcDbEntity
  8
0
100
AcDbBlockEnd
  0
ENDSEC
  0
SECTION
  2
ENTITIES
  0
LINE
  5
45
100
AcDbEntity
100
AcDbLine
  8
0
 62
256
370
-1
  6
ByLayer
 10
-0.8287757080518325
 20
14.3242244680204092
 30
0.0
 11
-4.5496658929236133
 21
20.7687474288822642
 31
0.0
  0
LINE
  5
46
100
AcDbEntity
100
AcDbLine
  8
0
 62
256
370
-1
  6
ByLayer
 10
-4.5496658929236133
 20
20.7687474288822642
 30
0.0
 11
-11.9912315847379745
 21
20.7686234845220383
 31
0.0
  0
LINE
  5
47
100
AcDbEntity
100
AcDbLine
  8
0
 62
256
370
-1
  6
ByLayer
 10
-11.9912315847379745
 20
20.7686234845220383
 30
0.0
 11
-15.7119070916805548
 21
14.3239765792999645
 31
0.0
  0
LINE
  5
48
100
AcDbEntity
100
AcDbLine
  8
0
 62
256
370
-1
  6
ByLayer
 10
-15.7119070916805548
 20
14.3239765792999645
 30
0.0
 11
-11.9910169068087669
 21
7.879453618438129
 31
0.0
  0
LINE
  5
49
100
AcDbEntity
100
AcDbLine
  8
0
 62
256
370
-1
  6
ByLayer
 10
11.7324371983899702
 20
8.3272544025153099
 30
0.0
 11
15.1948103826257146
 21
14.324491351793041
 31
0.0
  0
LINE
  5
4A
100
AcDbEntity
100
AcDbLine
  8
0
 62
256
370
-1
  6
ByLayer
 10
15.1948103826257146
 20
14.324491351793041
 30
0.0
 11
11.7322374241543947
 21
20.3216129613620993
 31
0.0
  0
LINE
  5
4B
100
AcDbEntity
100
AcDbLine
  8
0
 62
256
370
-1
  6
ByLayer
 10
11.7322374241543947
 20
20.3216129613620993
 30
0.0
 11
4.807291281447295
 21
20.3214976216534211
 31
0.0
  0
LINE
  5
4C
100
AcDbEntity
100
AcDbLine
  8
0
 62
256
370
-1
  6
ByLayer
 10
4.807291281447295
 20
20.3214976216534211
 30
0.0
 11
1.3449180972115435
 21
14.3242606723756776
 31
0.0
  0
LINE
  5
4D
100
AcDbEntity
100
AcDbLine
  8
0
 62
256
370
-1
  6
ByLayer
 10
13.0602719050180376
 20
-6.0273783965477765
 30
0.0
 11
20.0203401620070913
 21
-6.0272624718562735
 31
0.0
  0
LINE
  5
4E
100
AcDbEntity
100
AcDbLine
  8
0
 62
256
370
-1
  6
ByLayer
 10
20.0203401620070913
 20
-6.0272624718562735
 30
0.0
 11
23.5002738967738587
 21
0.0003914131156808
 31
0.0
  0
LINE
  5
4F
100
AcDbEntity
100
AcDbLine
  8
0
 62
256
370
-1
  6
ByLayer
 10
23.5002738967738587
 20
0.0003914131156808
 30
0.0
 11
20.0201393745515652
 21
6.0279293733961321
 31
0.0
  0
LINE
  5
50
100
AcDbEntity
100
AcDbLine
  8
0
 62
256
370
-1
  6
ByLayer
 10
20.0201393745515652
 20
6.0279293733961321
 30
0.0
 11
13.0600711175625044
 21
6.0278134487046398
 31
0.0
  0
LINE
  5
51
100
AcDbEntity
100
AcDbLine
  8
0
 62
256
370
-1
  6
ByLayer
 10
1.5253092663527177
 20
-14.3242128667781508
 30
0.0
 11
4.8979226251035648
 21
-20.1655258721841903
 31
0.0
  0
LINE
  5
52
100
AcDbEntity
100
AcDbLine
  8
0
 62
256
370
-1
  6
ByLayer
 10
4.8979226251035648
 20
-20.1655258721841903
 30
0.0
 11
11.6429547586170337
 21
-20.1654135290662211
 31
0.0
  0
LINE
  5
53
100
AcDbEntity
100
AcDbLine
  8
0
 62
256
370
-1
  6
ByLayer
 10
11.6429547586170337
 20
-20.1654135290662211
 30
0.0
 11
15.0153735333796696
 21
-14.323988180542214
 31
0.0
  0
LINE
  5
54
100
AcDbEntity
100
AcDbLine
  8
0
 62
256
370
-1
  6
ByLayer
 10
15.0153735333796696
 20
-14.323988180542214
 30
0.0
 11
11.6427601746288367
 21
-8.4826751751361797
 31
0.0
  0
LINE
  5
55
100
AcDbEntity
100
AcDbLine
  8
0
 62
256
370
-1
  6
ByLayer
 10
-11.6172726614454298
 20
-8.5267175593785609
 30
0.0
 11
-14.9644879531908224
 21
-14.3244875156156599
 31
0.0
  0
LINE
  5
56
100
AcDbEntity
100
AcDbLine
  8
0
 62
256
370
-1
  6
ByLayer
 10
-14.9644879531908224
 20
-14.3244875156156599
 30
0.0
 11
-11.6170795316640003
 21
-20.1221459683214619
 31
0.0
  0
LINE
  5
57
100
AcDbEntity
100
AcDbLine
  8
0
 62
256
370
-1
  6
ByLayer
 10
-11.6170795316640003
 20
-20.1221459683214619
 30
0.0
 11
-4.9224558183917857
 21
-20.1220344647901719
 31
0.0
  0
LINE
  5
58
100
AcDbEntity
100
AcDbLine
  8
0
 62
256
370
-1
  6
ByLayer
 10
-4.9224558183917857
 20
-20.1220344647901719
 30
0.0
 11
-1.575240526646386
 21
-14.3242645085530729
 31
0.0
  0
LINE
  5
59
100
AcDbEntity
100
AcDbLine
  8
0
 62
256
370
-1
  6
ByLayer
 10
-13.4025645124757986
 20
5.4344874042489497
 30
0.0
 11
-19.6780278047302239
 21
5.4343828821208096
 31
0.0
  0
LINE
  5
5A
100
AcDbEntity
100
AcDbLine
  8
0
 62
256
370
-1
  6
ByLayer
 10
-19.6780278047302239
 20
5.4343828821208096
 30
0.0
 11
-22.8156689320392125
 21
-0.0003800105523144
 31
0.0
  0
LINE
  5
5B
100
AcDbEntity
100
AcDbLine
  8
0
 62
256
370
-1
  6
ByLayer
 10
-22.8156689320392125
 20
-0.0003800105523144
 30
0.0
 11
-19.6778467670937758
 21
-5.4350383810973018
 31
0.0
  0
LINE
  5
5C
100
AcDbEntity
100
AcDbLine
  8
0
 62
256
370
-1
  6
ByLayer
 10
-19.6778467670937758
 20
-5.4350383810973018
 30
0.0
 11
-13.4023834748393593
 21
-5.4349338589691722
 31
0.0
  0
LINE
  5
5D
100
AcDbEntity
100
AcDbLine
  8
0
 62
256
370
-1
  6
ByLayer
 10
-11.9910169068087669
 20
7.879453618438129
 30
0.0
 11
-10.2135415756672359
 21
7.8794832235040264
 31
0.0
  0
LINE
  5
5E
100
AcDbEntity
100
AcDbLine
  8
0
 62
256
370
-1
  6
ByLayer
 10
-10.2135415756672359
 20
7.8794832235040264
 30
0.0
 11
-12.5138012081658943
 21
3.8951634154131884
 31
0.0
  0
LINE
  5
5F
100
AcDbEntity
100
AcDbLine
  8
0
 62
256
370
-1
  6
ByLayer
 10
-12.5138012081658943
 20
3.8951634154131884
 30
0.0
 11
-13.4025645124757986
 21
5.4344874042489497
 31
0.0
  0
LINE
  5
60
100
AcDbEntity
100
AcDbLine
  8
0
 62
256
370
-1
  6
ByLayer
 10
-13.4023834748393593
 20
-5.4349338589691722
 30
0.0
 11
-12.5136714480077416
 21
-3.8955802650675029
 31
0.0
  0
LINE
  5
61
100
AcDbEntity
100
AcDbLine
  8
0
 62
256
370
-1
  6
ByLayer
 10
-9.8397973303039095
 20
-8.5266879543126564
 30
0.0
 11
-11.6172726614454298
 21
-8.5267175593785609
 31
0.0
  0
LINE
  5
62
100
AcDbEntity
100
AcDbLine
  8
0
 62
256
370
-1
  6
ByLayer
 10
-12.5136714480077416
 20
-3.8955802650675029
 30
0.0
 11
-9.8397973303039095
 21
-8.5266879543126564
 31
0.0
  0
LINE
  5
63
100
AcDbEntity
100
AcDbLine
  8
0
 62
256
370
-1
  6
ByLayer
 10
-1.575240526646386
 20
-14.3242645085530729
 30
0.0
 11
-2.4640038309562975
 21
-12.7849405197173027
 31
0.0
  0
LINE
  5
64
100
AcDbEntity
100
AcDbLine
  8
0
 62
256
370
-1
  6
ByLayer
 10
2.414021293184323
 20
-12.784859272876492
 30
0.0
 11
1.5253092663527177
 21
-14.3242128667781508
 31
0.0
  0
LINE
  5
65
100
AcDbEntity
100
AcDbLine
  8
0
 62
256
370
-1
  6
ByLayer
 10
-2.4640038309562975
 20
-12.7849405197173027
 30
0.0
 11
2.414021293184323
 21
-12.784859272876492
 31
0.0
  0
LINE
  5
66
100
AcDbEntity
100
AcDbLine
  8
0
 62
256
370
-1
  6
ByLayer
 10
11.6427601746288367
 20
-8.4826751751361797
 30
0.0
 11
9.8652848434873057
 21
-8.4827047802020772
 31
0.0
  0
LINE
  5
67
100
AcDbEntity
100
AcDbLine
  8
0
 62
256
370
-1
  6
ByLayer
 10
12.1715086007081261
 20
-4.4880544077120224
 30
0.0
 11
13.0602719050180376
 21
-6.0273783965477765
 31
0.0
  0
LINE
  5
68
100
AcDbEntity
100
AcDbLine
  8
0
 62
256
370
-1
  6
ByLayer
 10
9.8652848434873057
 20
-8.4827047802020772
 30
0.0
 11
12.1715086007081261
 21
-4.4880544077120224
 31
0.0
  0
LINE
  5
69
100
AcDbEntity
100
AcDbLine
  8
0
 62
256
370
-1
  6
ByLayer
 10
13.0600711175625044
 20
6.0278134487046398
 30
0.0
 11
12.1713590907308919
 21
4.4884598548029633
 31
0.0
  0
LINE
  5
6A
100
AcDbEntity
100
AcDbLine
  8
0
 62
256
370
-1
  6
ByLayer
 10
12.1713590907308919
 20
4.4884598548029633
 30
0.0
 11
9.9549618672484534
 21
8.3272247974494089
 31
0.0
  0
LINE
  5
6B
100
AcDbEntity
100
AcDbLine
  8
0
 62
256
370
-1
  6
ByLayer
 10
9.9549618672484534
 20
8.3272247974494089
 30
0.0
 11
11.7324371983899702
 21
8.3272544025153099
 31
0.0
  0
LINE
  5
6C
100
AcDbEntity
100
AcDbLine
  8
0
 62
256
370
-1
  6
ByLayer
 10
1.3449180972115435
 20
14.3242606723756776
 30
0.0
 11
2.2336814015214586
 21
12.7849366835398879
 31
0.0
  0
LINE
  5
6D
100
AcDbEntity
100
AcDbLine
  8
0
 62
256
370
-1
  6
ByLayer
 10
2.2336814015214586
 20
12.7849366835398879
 30
0.0
 11
-1.7174877348834521
 21
12.7848708741187433
 31
0.0
  0
LINE
  5
6E
100
AcDbEntity
100
AcDbLine
  8
0
 62
256
370
-1
  6
ByLayer
 10
-1.7174877348834521
 20
12.7848708741187433
 30
0.0
 11
-0.8287757080518325
 21
14.3242244680204092
 31
0.0
  0
CIRCLE
  5
6F
100
AcDbEntity
100
AcDbCircle
  8
ref
 62
256
370
-1
  6
ByLayer
 10
-29.368694953185674
 20
-16.6595995374057395
 30
0.0
 40
7.5
  0
CIRCLE
  5
70
100
AcDbEntity
100
AcDbCircle
  8
ref
 62
256
370
-1
  6
ByLayer
 10
-29.368694953185674
 20
-16.6595995374057395
 30
0.0
 40
60.0
  0
LINE
  5
71
100
AcDbEntity
100
AcDbLine
  8
ref
 62
256
370
-1
  6
ByLayer
 10
13.0252176223837335
 20
-22.5603347911671293
 30
0.0
 11
26.0504318582244885
 21
0.0000019552214846
 31
0.0
  0
LINE
  5
72
100
AcDbEntity
100
AcDbLine
  8
ref
 62
256
370
-1
  6
ByLayer
 10
26.0504318582244885
 20
0.0000019552214846
 30
0.0
 11
13.0252142358407603
 21
22.5603367463886109
 31
0.0
  0
LINE
  5
73
100
AcDbEntity
100
AcDbLine
  8
ref
 62
256
370
-1
  6
ByLayer
 10
13.0252142358407603
 20
22.5603367463886109
 30
0.0
 11
-13.0252176223837335
 21
22.5603347911671257
 31
0.0
  0
LINE
  5
74
100
AcDbEntity
100
AcDbLine
  8
ref
 62
256
370
-1
  6
ByLayer
 10
-13.0252176223837335
 20
22.5603347911671257
 30
0.0
 11
-26.0504318582245133
 21
-0.0000019552214878
 31
0.0
  0
LINE
  5
75
100
AcDbEntity
100
AcDbLine
  8
ref
 62
256
370
-1
  6
ByLayer
 10
-26.0504318582245133
 20
-0.0000019552214878
 30
0.0
 11
-13.0252142358408065
 21
-22.560336746388618
 31
0.0
  0
LINE
  5
76
100
AcDbEntity
100
AcDbLine
  8
ref
 62
256
370
-1
  6
ByLayer
 10
-13.0252142358408065
 20
-22.560336746388618
 30
0.0
 11
13.0252176223836962
 21
-22.5603347911671612
 31
0.0
  0
LINE
  5
77
100
AcDbEntity
100
AcDbLine
  8
ref
 62
256
370
-1
  6
ByLayer
 10
-0.0000000000000096
 20
0.0000000000000151
 30
0.0
 11
-26.0504318582245133
 21
-0.0000019552214878
 31
0.0
  0
LINE
  5
78
100
AcDbEntity
100
AcDbLine
  8
ref
 62
256
370
-1
  6
ByLayer
 10
-0.0000000000000095
 20
0.0000000000000133
 30
0.0
 11
26.0504318582244885
 21
0.0000019552214846
 31
0.0
  0
LINE
  5
79
100
AcDbEntity
100
AcDbLine
  8
ref
 62
256
370
-1
  6
ByLayer
 10
-0.0000000000000095
 20
0.0000000000000133
 30
0.0
 11
-13.0252176223837335
 21
22.5603347911671257
 31
0.0
  0
LINE
  5
7A
100
AcDbEntity
100
AcDbLine
  8
ref
 62
256
370
-1
  6
ByLayer
 10
-0.0000000000000096
 20
0.0000000000000151
 30
0.0
 11
13.0252176223836962
 21
-22.5603347911671612
 31
0.0
  0
LINE
  5
7B
100
AcDbEntity
100
AcDbLine
  8
ref
 62
256
370
-1
  6
ByLayer
 10
-0.0000000000000095
 20
0.0000000000000133
 30
0.0
 11
13.0252142358407603
 21
22.5603367463886109
 31
0.0
  0
LINE
  5
7C
100
AcDbEntity
100
AcDbLine
  8
ref
 62
256
370
-1
  6
ByLayer
 10
-0.0000000000000096
 20
0.0000000000000151
 30
0.0
 11
-13.0252142358408065
 21
-22.560336746388618
 31
0.0
  0
CIRCLE
  5
7D
100
AcDbEntity
100
AcDbCircle
  8
ref
 62
256
370
-1
  6
ByLayer
 10
-0.0000000000000095
 20
0.0000000000000133
 30
0.0
 40
13.0
  0
LINE
  5
7E
100
AcDbEntity
100
AcDbLine
  8
ref
 62
256
370
-1
  6
ByLayer
 10
-9.1699192903140201
 20
15.8827633591280915
 30
0.0
 11
-6.6699192903140201
 21
20.2128903780502824
 31
0.0
  0
LINE
  5
7F
100
AcDbEntity
100
AcDbLine
  8
ref
 62
256
370
-1
  6
ByLayer
 10
-3.6164265756486498
 20
6.2638334851388286
 30
0.0
 11
-1.1164265756486493
 21
10.5939605040610214
 31
0.0
  0
LINE
  5
80
100
AcDbEntity
100
AcDbLine
  8
ref
 62
256
370
-1
  6
ByLayer
 10
-3.3982879141571809
 20
16.6306541480460304
 30
0.0
 11
-4.8982879141571818
 21
19.2287303593993464
 31
0.0
  0
LINE
  5
81
100
AcDbEntity
100
AcDbLine
  8
ref
 62
256
370
-1
  6
ByLayer
 10
-3.3982879141571805
 20
16.6306541480460304
 30
0.0
 11
-0.3982879141571805
 21
16.6306541480460304
 31
0.0
  0
LINE
  5
82
100
AcDbEntity
100
AcDbLine
  8
1
 62
256
370
-1
  6
ByLayer
 10
-1.6360418179193124
 20
10.8939605040610221
 30
0.0
 11
-0.9432214948917627
 21
10.8939605040610221
 31
0.0
  0
LINE
  5
83
100
AcDbEntity
100
AcDbLine
  8
1
 62
256
370
-1
  6
ByLayer
 10
-0.5968113333779863
 20
10.2939605040610207
 30
0.0
 11
-0.9432214948917627
 21
10.8939605040610221
 31
0.0
  0
LINE
  5
84
100
AcDbEntity
100
AcDbLine
  8
1
 62
256
370
-1
  6
ByLayer
 10
-7.1895345325846831
 20
20.5128903780502831
 30
0.0
 11
-6.4967142095571333
 21
20.5128903780502831
 31
0.0
  0
LINE
  5
85
100
AcDbEntity
100
AcDbLine
  8
1
 62
256
370
-1
  6
ByLayer
 10
-6.1503040480433571
 20
19.9128903780502817
 30
0.0
 11
-6.4967142095571333
 21
20.5128903780502831
 31
0.0
  0
LINE
  5
86
100
AcDbEntity
100
AcDbLine
  8
1
 62
256
370
-1
  6
ByLayer
 10
-5.1292280218330317
 20
18.4287303593993457
 30
0.0
 11
-4.7828178603192555
 21
19.0287303593993471
 31
0.0
  0
LINE
  5
87
100
AcDbEntity
100
AcDbLine
  8
1
 62
256
370
-1
  6
ByLayer
 10
-4.0899975372917057
 20
19.0287303593993471
 30
0.0
 11
-4.7828178603192555
 21
19.0287303593993471
 31
0.0
  0
LINE
  5
88
100
AcDbEntity
100
AcDbLine
  8
1
 62
256
370
-1
  6
ByLayer
 10
-0.9756381833468064
 20
17.2306541480460318
 30
0.0
 11
-0.6292280218330301
 21
16.6306541480460304
 31
0.0
  0
LINE
  5
89
100
AcDbEntity
100
AcDbLine
  8
1
 62
256
370
-1
  6
ByLayer
 10
-0.9756381833468063
 20
16.030654148046029
 30
0.0
 11
-0.6292280218330301
 21
16.6306541480460304
 31
0.0
  0
LINE
  5
8A
100
AcDbEntity
100
AcDbLine
  8
1
 62
256
370
-1
  6
ByLayer
 10
-11.9859870627871636
 20
21.9603348171670305
 30
0.0
 11
-12.3323972993561846
 21
22.5603348431669239
 31
0.0
  0
LINE
  5
8B
100
AcDbEntity
100
AcDbLine
  8
1
 62
256
370
-1
  6
ByLayer
 10
-12.1014571116214071
 20
21.7603348258336631
 30
0.0
 11
-11.9859870627871636
 21
21.9603348171670305
 31
0.0
  0
LINE
  5
8C
100
AcDbEntity
100
AcDbLine
  8
1
 62
256
370
-1
  6
ByLayer
 10
-9.1699193203361133
 20
16.682763307128301
 30
0.0
 11
-12.1014571116214071
 21
21.7603348258336631
 31
0.0
  0
LINE
  5
8D
100
AcDbEntity
100
AcDbLine
  8
1
 62
256
370
-1
  6
ByLayer
 10
-9.1699193203361133
 20
16.682763307128301
 30
0.0
 11
-7.4204746402605331
 21
19.7128903780502824
 31
0.0
  0
LINE
  5
8E
100
AcDbEntity
100
AcDbLine
  8
1
 62
256
370
-1
  6
ByLayer
 10
-7.5359446940984585
 20
19.9128903780502853
 30
0.0
 11
-7.1895345325846831
 21
20.5128903780502831
 31
0.0
  0
LINE
  5
8F
100
AcDbEntity
100
AcDbLine
  8
1
 62
256
370
-1
  6
ByLayer
 10
-7.4204746402605331
 20
19.7128903780502824
 30
0.0
 11
-7.5359446940984585
 21
19.9128903780502853
 31
0.0
  0
LINE
  5
90
100
AcDbEntity
100
AcDbLine
  8
1
 62
256
370
-1
  6
ByLayer
 10
-6.4967142095571315
 20
19.3128903780502839
 30
0.0
 11
-6.1503040480433571
 21
19.9128903780502817
 31
0.0
  0
LINE
  5
91
100
AcDbEntity
100
AcDbLine
  8
1
 62
256
370
-1
  6
ByLayer
 10
-6.7276543172329824
 20
19.3128903780502839
 30
0.0
 11
-6.4967142095571315
 21
19.3128903780502839
 31
0.0
  0
LINE
  5
92
100
AcDbEntity
100
AcDbLine
  8
1
 62
256
370
-1
  6
ByLayer
 10
-8.7080390649549511
 20
15.8827633764613587
 30
0.0
 11
-6.7276543172329824
 21
19.3128903780502839
 31
0.0
  0
LINE
  5
93
100
AcDbEntity
100
AcDbLine
  8
1
 62
256
370
-1
  6
ByLayer
 10
-3.8601681295088803
 20
16.6306541480460304
 30
0.0
 11
-4.5518777526434056
 21
17.8287303593993478
 31
0.0
  0
LINE
  5
94
100
AcDbEntity
100
AcDbLine
  8
1
 62
256
370
-1
  6
ByLayer
 10
-4.5518777526434056
 20
17.8287303593993478
 30
0.0
 11
-4.7828178603192573
 21
17.8287303593993478
 31
0.0
  0
LINE
  5
95
100
AcDbEntity
100
AcDbLine
  8
1
 62
256
370
-1
  6
ByLayer
 10
-4.7828178603192573
 20
17.8287303593993478
 30
0.0
 11
-5.1292280218330317
 21
18.4287303593993457
 31
0.0
  0
LINE
  5
96
100
AcDbEntity
100
AcDbLine
  8
1
 62
256
370
-1
  6
ByLayer
 10
-3.8590574296158557
 20
18.2287303593993464
 30
0.0
 11
-3.7435873757779303
 21
18.4287303593993457
 31
0.0
  0
LINE
  5
97
100
AcDbEntity
100
AcDbLine
  8
1
 62
256
370
-1
  6
ByLayer
 10
-3.7435873757779303
 20
18.4287303593993457
 30
0.0
 11
-4.0899975372917057
 21
19.0287303593993471
 31
0.0
  0
LINE
  5
98
100
AcDbEntity
100
AcDbLine
  8
1
 62
256
370
-1
  6
ByLayer
 10
-3.3982879141571809
 20
17.4306541480460275
 30
0.0
 11
-3.8590574296158557
 21
18.2287303593993464
 31
0.0
  0
LINE
  5
99
100
AcDbEntity
100
AcDbLine
  8
1
 62
256
370
-1
  6
ByLayer
 10
-2.7054675911296289
 20
17.0306541480460325
 30
0.0
 11
-1.7839285602122812
 21
17.0306541480460325
 31
0.0
  0
LINE
  5
9A
100
AcDbEntity
100
AcDbLine
  8
1
 62
256
370
-1
  6
ByLayer
 10
-1.6684585063743564
 20
17.2306541480460318
 30
0.0
 11
-0.9756381833468064
 21
17.2306541480460318
 31
0.0
  0
LINE
  5
9B
100
AcDbEntity
100
AcDbLine
  8
1
 62
256
370
-1
  6
ByLayer
 10
-1.7839285602122812
 20
17.0306541480460325
 30
0.0
 11
-1.6684585063743564
 21
17.2306541480460318
 31
0.0
  0
LINE
  5
9C
100
AcDbEntity
100
AcDbLine
  8
1
 62
256
370
-1
  6
ByLayer
 10
-1.6684585063743549
 20
16.030654148046029
 30
0.0
 11
-0.9756381833468063
 21
16.030654148046029
 31
0.0
  0
LINE
  5
9D
100
AcDbEntity
100
AcDbLine
  8
1
 62
256
370
-1
  6
ByLayer
 10
-1.7839285602122796
 20
16.2306541480460282
 30
0.0
 11
-1.6684585063743549
 21
16.030654148046029
 31
0.0
  0
LINE
  5
9E
100
AcDbEntity
100
AcDbLine
  8
1
 62
256
370
-1
  6
ByLayer
 10
-3.1673478064813323
 20
16.2306541480460282
 30
0.0
 11
-1.7839285602122796
 21
16.2306541480460282
 31
0.0
  0
LINE
  5
9F
100
AcDbEntity
100
AcDbLine
  8
1
 62
256
370
-1
  6
ByLayer
 10
-1.9824519794330884
 20
10.2939605040610207
 30
0.0
 11
-1.6360418179193124
 21
10.8939605040610221
 31
0.0
  0
LINE
  5
A0
100
AcDbEntity
100
AcDbLine
  8
1
 62
256
370
-1
  6
ByLayer
 10
-1.8669819255951632
 20
10.0939605040610214
 30
0.0
 11
-1.9824519794330884
 21
10.2939605040610207
 31
0.0
  0
LINE
  5
A1
100
AcDbEntity
100
AcDbLine
  8
1
 62
256
370
-1
  6
ByLayer
 10
-0.9432214948917607
 20
9.6939605040610228
 30
0.0
 11
-0.5968113333779863
 21
10.2939605040610207
 31
0.0
  0
LINE
  5
A2
100
AcDbEntity
100
AcDbLine
  8
1
 62
256
370
-1
  6
ByLayer
 10
-1.1741616025676107
 20
9.6939605040610228
 30
0.0
 11
-0.9432214948917607
 21
9.6939605040610228
 31
0.0
  0
LINE
  5
A3
100
AcDbEntity
100
AcDbLine
  8
1
 62
256
370
-1
  6
ByLayer
 10
-6.6207528002735732
 20
12.2674781427395807
 30
0.0
 11
-8.7080390649549511
 21
15.8827633764613587
 31
0.0
  0
LINE
  5
A4
100
AcDbEntity
100
AcDbLine
  8
1
 62
256
370
-1
  6
ByLayer
 10
-3.8601681295088803
 20
16.6306541480460304
 30
0.0
 11
-6.6207528002735732
 21
12.2674781427395807
 31
0.0
  0
LINE
  5
A5
100
AcDbEntity
100
AcDbLine
  8
1
 62
256
370
-1
  6
ByLayer
 10
-3.1673478064813323
 20
16.2306541480460282
 30
0.0
 11
-5.9178114019673087
 21
11.0499481371673429
 31
0.0
  0
LINE
  5
A6
100
AcDbEntity
100
AcDbLine
  8
1
 62
256
370
-1
  6
ByLayer
 10
-3.7400567312796502
 20
7.2779670549234279
 30
0.0
 11
-1.8669819255951632
 21
10.0939605040610214
 31
0.0
  0
LINE
  5
A7
100
AcDbEntity
100
AcDbLine
  8
1
 62
256
370
-1
  6
ByLayer
 10
-3.7400567312796502
 20
7.2779670549234279
 30
0.0
 11
-5.9178114019673087
 21
11.0499481371673429
 31
0.0
  0
LINE
  5
A8
100
AcDbEntity
100
AcDbLine
  8
1
 62
256
370
-1
  6
ByLayer
 10
-1.1741616025676107
 20
9.6939605040610228
 30
0.0
 11
-3.0282018703323588
 21
6.0587533983097357
 31
0.0
  0
LINE
  5
A9
100
AcDbEntity
100
AcDbLine
  8
1
 62
256
370
-1
  6
ByLayer
 10
-8.6164266657148794
 20
6.8638327345863939
 30
0.0
 11
-8.962836737162359
 21
6.2638326825866031
 31
0.0
  0
LINE
  5
AA
100
AcDbEntity
100
AcDbLine
  8
1
 62
256
370
-1
  6
ByLayer
 10
-8.6164264855822914
 20
5.663832734586407
 30
0.0
 11
-8.962836737162359
 21
6.2638326825866031
 31
0.0
  0
LINE
  5
AB
100
AcDbEntity
100
AcDbLine
  8
1
 62
256
370
-1
  6
ByLayer
 10
-14.1699193803802501
 20
16.4827626085756549
 30
0.0
 11
-14.5163294518277297
 21
15.8827625565758659
 31
0.0
  0
LINE
  5
AC
100
AcDbEntity
100
AcDbLine
  8
1
 62
256
370
-1
  6
ByLayer
 10
-14.1699192002476657
 20
15.282762608575668
 30
0.0
 11
-14.5163294518277297
 21
15.8827625565758659
 31
0.0
  0
LINE
  5
AD
100
AcDbEntity
100
AcDbLine
  8
1
 62
256
370
-1
  6
ByLayer
 10
-13.3951366897865807
 20
13.6564049376597545
 30
0.0
 11
-14.087957012814126
 21
13.656404833660158
 31
0.0
  0
LINE
  5
AE
100
AcDbEntity
100
AcDbLine
  8
1
 62
256
370
-1
  6
ByLayer
 10
-14.4343670842616039
 20
13.0564047816603708
 30
0.0
 11
-14.087957012814126
 21
13.656404833660158
 31
0.0
  0
LINE
  5
AF
100
AcDbEntity
100
AcDbLine
  8
1
 62
256
370
-1
  6
ByLayer
 10
-14.4343665444414135
 20
9.4602523589537757
 30
0.0
 11
-14.0879562928613478
 21
8.8602524109535796
 31
0.0
  0
LINE
  5
B0
100
AcDbEntity
100
AcDbLine
  8
1
 62
256
370
-1
  6
ByLayer
 10
-13.3951359698338095
 20
8.8602525149531743
 30
0.0
 11
-14.0879562928613478
 21
8.8602524109535796
 31
0.0
  0
LINE
  5
B1
100
AcDbEntity
100
AcDbLine
  8
1
 62
256
370
-1
  6
ByLayer
 10
-13.0252175022953427
 20
21.3603347391673353
 30
0.0
 11
-13.3716277388643618
 21
21.9603347651672287
 31
0.0
  0
LINE
  5
B2
100
AcDbEntity
100
AcDbLine
  8
1
 62
256
370
-1
  6
ByLayer
 10
-12.7942774046268593
 20
21.3603347738338663
 30
0.0
 11
-13.0252175022953427
 21
21.3603347391673353
 31
0.0
  0
LINE
  5
B3
100
AcDbEntity
100
AcDbLine
  8
1
 62
256
370
-1
  6
ByLayer
 10
-9.8627396133415708
 20
16.2827632551285006
 30
0.0
 11
-12.7942774046268593
 21
21.3603347738338663
 31
0.0
  0
LINE
  5
B4
100
AcDbEntity
100
AcDbLine
  8
1
 62
256
370
-1
  6
ByLayer
 10
-9.8627396133415708
 20
16.2827632551285006
 30
0.0
 11
-13.3616289734926834
 21
16.2827627299085194
 31
0.0
  0
LINE
  5
B5
100
AcDbEntity
100
AcDbLine
  8
1
 62
256
370
-1
  6
ByLayer
 10
-13.4770990573527101
 20
16.4827627125752514
 30
0.0
 11
-14.1699193803802501
 21
16.4827626085756549
 31
0.0
  0
LINE
  5
B6
100
AcDbEntity
100
AcDbLine
  8
1
 62
256
370
-1
  6
ByLayer
 10
-13.3616289734926834
 20
16.2827627299085194
 30
0.0
 11
-13.4770990573527101
 21
16.4827627125752514
 31
0.0
  0
LINE
  5
B7
100
AcDbEntity
100
AcDbLine
  8
1
 62
256
370
-1
  6
ByLayer
 10
-13.4770988772201221
 20
15.2827627125752645
 30
0.0
 11
-14.1699192002476657
 21
15.282762608575668
 31
0.0
  0
LINE
  5
B8
100
AcDbEntity
100
AcDbLine
  8
1
 62
256
370
-1
  6
ByLayer
 10
-13.3616288534042997
 20
15.4827627299085275
 30
0.0
 11
-13.4770988772201221
 21
15.2827627125752645
 31
0.0
  0
LINE
  5
B9
100
AcDbEntity
100
AcDbLine
  8
1
 62
256
370
-1
  6
ByLayer
 10
-9.4008593579604014
 20
15.4827633244615619
 30
0.0
 11
-13.3616288534042997
 21
15.4827627299085275
 31
0.0
  0
LINE
  5
BA
100
AcDbEntity
100
AcDbLine
  8
1
 62
256
370
-1
  6
ByLayer
 10
-12.4724866590440282
 20
11.6583288648058581
 30
0.0
 11
-13.1641964620223497
 21
12.8564049723262954
 31
0.0
  0
LINE
  5
BB
100
AcDbEntity
100
AcDbLine
  8
1
 62
256
370
-1
  6
ByLayer
 10
-13.1641964620223497
 20
12.8564049723262954
 30
0.0
 11
-13.0487264382065167
 21
13.0564049896595602
 31
0.0
  0
LINE
  5
BC
100
AcDbEntity
100
AcDbLine
  8
1
 62
256
370
-1
  6
ByLayer
 10
-13.0487264382065167
 20
13.0564049896595602
 30
0.0
 11
-13.3951366897865807
 21
13.6564049376597545
 31
0.0
  0
LINE
  5
BD
100
AcDbEntity
100
AcDbLine
  8
1
 62
256
370
-1
  6
ByLayer
 10
-13.8570167250056926
 20
12.4564048683267057
 30
0.0
 11
-14.0879568326815434
 21
12.4564048336601729
 31
0.0
  0
LINE
  5
BE
100
AcDbEntity
100
AcDbLine
  8
1
 62
256
370
-1
  6
ByLayer
 10
-14.0879568326815434
 20
12.4564048336601729
 30
0.0
 11
-14.4343670842616039
 21
13.0564047816603708
 31
0.0
  0
LINE
  5
BF
100
AcDbEntity
100
AcDbLine
  8
1
 62
256
370
-1
  6
ByLayer
 10
-13.3962470897474102
 20
11.6583287261397324
 30
0.0
 11
-13.8570167250056926
 21
12.4564048683267057
 31
0.0
  0
LINE
  5
C0
100
AcDbEntity
100
AcDbLine
  8
1
 62
256
370
-1
  6
ByLayer
 10
-13.3962469696590247
 20
10.8583287261397423
 30
0.0
 11
-13.8570163653180902
 21
10.0602524456200992
 31
0.0
  0
LINE
  5
C1
100
AcDbEntity
100
AcDbLine
  8
1
 62
256
370
-1
  6
ByLayer
 10
-14.0879564729939339
 20
10.0602524109535683
 30
0.0
 11
-14.4343665444414135
 21
9.4602523589537757
 31
0.0
  0
LINE
  5
C2
100
AcDbEntity
100
AcDbLine
  8
1
 62
256
370
-1
  6
ByLayer
 10
-13.8570163653180902
 20
10.0602524456200992
 30
0.0
 11
-14.0879564729939339
 21
10.0602524109535683
 31
0.0
  0
LINE
  5
C3
100
AcDbEntity
100
AcDbLine
  8
1
 62
256
370
-1
  6
ByLayer
 10
-13.0487258983863246
 20
9.4602525669529651
 30
0.0
 11
-13.3951359698338095
 21
8.8602525149531743
 31
0.0
  0
LINE
  5
C4
100
AcDbEntity
100
AcDbLine
  8
1
 62
256
370
-1
  6
ByLayer
 10
-13.1641959822463459
 20
9.6602525496196936
 30
0.0
 11
-13.0487258983863246
 21
9.4602525669529651
 31
0.0
  0
LINE
  5
C5
100
AcDbEntity
100
AcDbLine
  8
1
 62
256
370
-1
  6
ByLayer
 10
-12.4724865389556374
 20
10.8583288648058698
 30
0.0
 11
-13.1641959822463459
 21
9.6602525496196936
 31
0.0
  0
LINE
  5
C6
100
AcDbEntity
100
AcDbLine
  8
1
 62
256
370
-1
  6
ByLayer
 10
-7.9236063426873331
 20
6.8638328385859886
 30
0.0
 11
-8.6164266657148794
 21
6.8638327345863939
 31
0.0
  0
LINE
  5
C7
100
AcDbEntity
100
AcDbLine
  8
1
 62
256
370
-1
  6
ByLayer
 10
-7.8081362588273144
 20
6.6638328559192583
 30
0.0
 11
-7.9236063426873331
 21
6.8638328385859886
 31
0.0
  0
LINE
  5
C8
100
AcDbEntity
100
AcDbLine
  8
1
 62
256
370
-1
  6
ByLayer
 10
-7.9236061625547567
 20
5.6638328385860035
 30
0.0
 11
-8.6164264855822914
 21
5.663832734586407
 31
0.0
  0
LINE
  5
C9
100
AcDbEntity
100
AcDbLine
  8
1
 62
256
370
-1
  6
ByLayer
 10
-7.8081361387389316
 20
5.863832855919263
 30
0.0
 11
-7.9236061625547567
 21
5.6638328385860035
 31
0.0
  0
LINE
  5
CA
100
AcDbEntity
100
AcDbLine
  8
1
 62
256
370
-1
  6
ByLayer
 10
-7.3135730932790235
 20
11.8674780907397839
 30
0.0
 11
-9.4008593579604014
 21
15.4827633244615619
 31
0.0
  0
LINE
  5
CB
100
AcDbEntity
100
AcDbLine
  8
1
 62
256
370
-1
  6
ByLayer
 10
-12.4724866590440282
 20
11.6583288648058581
 30
0.0
 11
-7.3135730932790235
 21
11.8674780907397839
 31
0.0
  0
LINE
  5
CC
100
AcDbEntity
100
AcDbLine
  8
1
 62
256
370
-1
  6
ByLayer
 10
-12.4724865389556374
 20
10.8583288648058698
 30
0.0
 11
-6.6106316949727635
 21
10.6499480851675461
 31
0.0
  0
LINE
  5
CD
100
AcDbEntity
100
AcDbLine
  8
1
 62
256
370
-1
  6
ByLayer
 10
-4.4328770242851032
 20
6.8779670029236311
 30
0.0
 11
-7.8081362588273144
 21
6.6638328559192583
 31
0.0
  0
LINE
  5
CE
100
AcDbEntity
100
AcDbLine
  8
1
 62
256
370
-1
  6
ByLayer
 10
-4.4328770242851032
 20
6.8779670029236311
 30
0.0
 11
-6.6106316949727635
 21
10.6499480851675461
 31
0.0
  0
LINE
  5
CF
100
AcDbEntity
100
AcDbLine
  8
1
 62
256
370
-1
  6
ByLayer
 10
-7.8081361387389316
 20
5.863832855919263
 30
0.0
 11
-3.732934271441227
 21
5.6518758862977272
 31
0.0
  0
LINE
  5
D0
100
AcDbEntity
100
AcDbLine
  8
1
 62
256
370
-1
  6
ByLayer
 10
-13.3716277388643618
 20
21.9603347651672287
 30
0.0
 11
-13.0252176223837335
 21
22.5603347911671257
 31
0.0
  0
LINE
  5
D1
100
AcDbEntity
100
AcDbLine
  8
1
 62
256
370
-1
  6
ByLayer
 10
-12.3323972993561846
 20
22.5603348431669239
 30
0.0
 11
-13.0252176223837335
 21
22.5603347911671257
 31
0.0
  0
LINE
  5
D2
100
AcDbEntity
100
AcDbLine
  8
ref
 62
256
370
-1
  6
ByLayer
 10
-6.5000008449967046
 20
11.2583297613386044
 30
0.0
 11
-0.9215862312065428
 21
20.920427298107878
 31
0.0
  0
LINE
  5
D3
100
AcDbEntity
100
AcDbLine
  8
ref
 62
256
370
-1
  6
ByLayer
 10
-6.5000008449967046
 20
11.2583297613386044
 30
0.0
 11
-17.6568300725769021
 21
11.2583280865815443
 31
0.0
  0
LINE
  5
D4
100
AcDbEntity
100
AcDbLine
  8
1
 62
256
370
-1
  6
ByLayer
 10
-1.6144065542340922
 20
20.920427298107878
 30
0.0
 11
-0.9215862312065428
 21
20.920427298107878
 31
0.0
  0
LINE
  5
D5
100
AcDbEntity
100
AcDbLine
  8
1
 62
256
370
-1
  6
ByLayer
 10
-0.5751760696927664
 20
20.3204272981078766
 30
0.0
 11
-0.9215862312065428
 21
20.920427298107878
 31
0.0
  0
LINE
  5
D6
100
AcDbEntity
100
AcDbLine
  8
1
 62
256
370
-1
  6
ByLayer
 10
-1.9608167157478689
 20
20.3204272981078766
 30
0.0
 11
-1.6144065542340922
 21
20.920427298107878
 31
0.0
  0
LINE
  5
D7
100
AcDbEntity
100
AcDbLine
  8
1
 62
256
370
-1
  6
ByLayer
 10
-0.9215862312065407
 20
19.7204272981078788
 30
0.0
 11
-0.5751760696927664
 21
20.3204272981078766
 31
0.0
  0
LINE
  5
D8
100
AcDbEntity
100
AcDbLine
  8
1
 62
256
370
-1
  6
ByLayer
 10
-17.3104200011294154
 20
11.8583281385813315
 30
0.0
 11
-17.6568300725769021
 21
11.2583280865815443
 31
0.0
  0
LINE
  5
D9
100
AcDbEntity
100
AcDbLine
  8
1
 62
256
370
-1
  6
ByLayer
 10
-17.3104198209968381
 20
10.6583281385813518
 30
0.0
 11
-17.6568300725769021
 21
11.2583280865815443
 31
0.0
  0
LINE
  5
DA
100
AcDbEntity
100
AcDbLine
  8
1
 62
256
370
-1
  6
ByLayer
 10
-16.6175996781018789
 20
11.8583282425809333
 30
0.0
 11
-17.3104200011294154
 21
11.8583281385813315
 31
0.0
  0
LINE
  5
DB
100
AcDbEntity
100
AcDbLine
  8
1
 62
256
370
-1
  6
ByLayer
 10
-16.6175994979692945
 20
10.6583282425809429
 30
0.0
 11
-17.3104198209968381
 21
10.6583281385813518
 31
0.0
  0
LINE
  5
DC
100
AcDbEntity
100
AcDbLine
  8
1
 62
256
370
-1
  6
ByLayer
 10
-13.3962470897474102
 20
11.6583287261397324
 30
0.0
 11
-16.5021295942418611
 21
11.6583282599142013
 31
0.0
  0
LINE
  5
DD
100
AcDbEntity
100
AcDbLine
  8
1
 62
256
370
-1
  6
ByLayer
 10
-16.5021295942418611
 20
11.6583282599142013
 30
0.0
 11
-16.6175996781018789
 21
11.8583282425809333
 31
0.0
  0
LINE
  5
DE
100
AcDbEntity
100
AcDbLine
  8
1
 62
256
370
-1
  6
ByLayer
 10
-13.3962469696590247
 20
10.8583287261397423
 30
0.0
 11
-16.5021294741534703
 21
10.8583282599142095
 31
0.0
  0
LINE
  5
DF
100
AcDbEntity
100
AcDbLine
  8
1
 62
256
370
-1
  6
ByLayer
 10
-16.5021294741534703
 20
10.8583282599142095
 30
0.0
 11
-16.6175994979692945
 21
10.6583282425809429
 31
0.0
  0
LINE
  5
E0
100
AcDbEntity
100
AcDbLine
  8
1
 62
256
370
-1
  6
ByLayer
 10
-3.3982879141571809
 20
17.4306541480460275
 30
0.0
 11
-1.8453466619099441
 21
20.1204272981078773
 31
0.0
  0
LINE
  5
E1
100
AcDbEntity
100
AcDbLine
  8
1
 62
256
370
-1
  6
ByLayer
 10
-1.8453466619099441
 20
20.1204272981078773
 30
0.0
 11
-1.9608167157478689
 21
20.3204272981078766
 31
0.0
  0
LINE
  5
E2
100
AcDbEntity
100
AcDbLine
  8
1
 62
256
370
-1
  6
ByLayer
 10
-2.7054675911296289
 20
17.0306541480460325
 30
0.0
 11
-1.1525263388823934
 21
19.7204272981078788
 31
0.0
  0
LINE
  5
E3
100
AcDbEntity
100
AcDbLine
  8
1
 62
256
370
-1
  6
ByLayer
 10
-1.1525263388823934
 20
19.7204272981078788
 30
0.0
 11
-0.9215862312065407
 21
19.7204272981078788
 31
0.0
  0
LINE
  5
E4
100
AcDbEntity
100
AcDbLine
  8
1
 62
256
370
-1
  6
ByLayer
 10
-10.2524674533008291
 20
4.0301264760587125
 30
0.0
 11
-9.9060572917870555
 21
4.6301264760587113
 31
0.0
  0
LINE
  5
E5
100
AcDbEntity
100
AcDbLine
  8
1
 62
256
370
-1
  6
ByLayer
 10
-9.2132369687594995
 20
4.6301264760587122
 30
0.0
 11
-9.9060572917870555
 21
4.6301264760587113
 31
0.0
  0
LINE
  5
E6
100
AcDbEntity
100
AcDbLine
  8
1
 62
256
370
-1
  6
ByLayer
 10
-21.3594514387292662
 20
4.0301256424213312
 30
0.0
 11
-21.0130412772154891
 21
4.6301256424213273
 31
0.0
  0
LINE
  5
E7
100
AcDbEntity
100
AcDbLine
  8
1
 62
256
370
-1
  6
ByLayer
 10
-20.3202209541879348
 20
4.6301256424213255
 30
0.0
 11
-21.0130412772154891
 21
4.6301256424213273
 31
0.0
  0
LINE
  5
E8
100
AcDbEntity
100
AcDbLine
  8
1
 62
256
370
-1
  6
ByLayer
 10
-18.524362661649878
 20
4.7723234109892685
 30
0.0
 11
-18.8707728231636551
 21
5.3723234109892646
 31
0.0
  0
LINE
  5
E9
100
AcDbEntity
100
AcDbLine
  8
1
 62
256
370
-1
  6
ByLayer
 10
-18.524362661649878
 20
5.9723234109892669
 30
0.0
 11
-18.8707728231636551
 21
5.3723234109892646
 31
0.0
  0
LINE
  5
EA
100
AcDbEntity
100
AcDbLine
  8
1
 62
256
370
-1
  6
ByLayer
 10
-15.4100033077049776
 20
7.7703996223425857
 30
0.0
 11
-14.7171829846774269
 21
7.770399622342584
 31
0.0
  0
LINE
  5
EB
100
AcDbEntity
100
AcDbLine
  8
1
 62
256
370
-1
  6
ByLayer
 10
-14.3707728231636498
 20
7.1703996223425843
 30
0.0
 11
-14.7171829846774269
 21
7.770399622342584
 31
0.0
  0
LINE
  5
EC
100
AcDbEntity
100
AcDbLine
  8
1
 62
256
370
-1
  6
ByLayer
 10
-25.0112013586721247
 20
0.59999812277821
 30
0.0
 11
-25.7040217417438654
 21
0.5999980707784009
 31
0.0
  0
LINE
  5
ED
100
AcDbEntity
100
AcDbLine
  8
1
 62
256
370
-1
  6
ByLayer
 10
-24.8957313098378847
 20
0.3999981314448287
 30
0.0
 11
-25.0112013586721247
 21
0.59999812277821
 31
0.0
  0
LINE
  5
EE
100
AcDbEntity
100
AcDbLine
  8
1
 62
256
370
-1
  6
ByLayer
 10
-19.0326564894640633
 20
0.3999985714993454
 30
0.0
 11
-24.8957313098378847
 21
0.3999981314448287
 31
0.0
  0
LINE
  5
EF
100
AcDbEntity
100
AcDbLine
  8
1
 62
256
370
-1
  6
ByLayer
 10
-19.0326564894640633
 20
0.3999985714993454
 30
0.0
 11
-20.7821011695396365
 21
3.4301256424213347
 31
0.0
  0
LINE
  5
F0
100
AcDbEntity
100
AcDbLine
  8
1
 62
256
370
-1
  6
ByLayer
 10
-21.0130412772154926
 20
3.4301256424213249
 30
0.0
 11
-21.3594514387292662
 21
4.0301256424213312
 31
0.0
  0
LINE
  5
F1
100
AcDbEntity
100
AcDbLine
  8
1
 62
256
370
-1
  6
ByLayer
 10
-20.7821011695396365
 20
3.4301256424213347
 30
0.0
 11
-21.0130412772154926
 21
3.4301256424213249
 31
0.0
  0
LINE
  5
F2
100
AcDbEntity
100
AcDbLine
  8
1
 62
256
370
-1
  6
ByLayer
 10
-19.9738107926741613
 20
4.0301256424213259
 30
0.0
 11
-20.3202209541879348
 21
4.6301256424213255
 31
0.0
  0
LINE
  5
F3
100
AcDbEntity
100
AcDbLine
  8
1
 62
256
370
-1
  6
ByLayer
 10
-20.0892808465120858
 20
3.8301256424213301
 30
0.0
 11
-19.9738107926741613
 21
4.0301256424213259
 31
0.0
  0
LINE
  5
F4
100
AcDbEntity
100
AcDbLine
  8
1
 62
256
370
-1
  6
ByLayer
 10
-18.1088960987901189
 20
0.3999986408324108
 30
0.0
 11
-20.0892808465120858
 21
3.8301256424213301
 31
0.0
  0
LINE
  5
F5
100
AcDbEntity
100
AcDbLine
  8
1
 62
256
370
-1
  6
ByLayer
 10
-16.3326530385153532
 20
4.9723234109892669
 30
0.0
 11
-17.7160722847844028
 21
4.9723234109892731
 31
0.0
  0
LINE
  5
F6
100
AcDbEntity
100
AcDbLine
  8
1
 62
256
370
-1
  6
ByLayer
 10
-17.7160722847844028
 20
4.9723234109892731
 30
0.0
 11
-17.8315423386223308
 21
4.7723234109892649
 31
0.0
  0
LINE
  5
F7
100
AcDbEntity
100
AcDbLine
  8
1
 62
256
370
-1
  6
ByLayer
 10
-17.8315423386223308
 20
4.7723234109892649
 30
0.0
 11
-18.524362661649878
 21
4.7723234109892685
 31
0.0
  0
LINE
  5
F8
100
AcDbEntity
100
AcDbLine
  8
1
 62
256
370
-1
  6
ByLayer
 10
-17.7160722847843992
 20
5.7723234109892676
 30
0.0
 11
-17.8315423386223237
 21
5.9723234109892651
 31
0.0
  0
LINE
  5
F9
100
AcDbEntity
100
AcDbLine
  8
1
 62
256
370
-1
  6
ByLayer
 10
-17.8315423386223237
 20
5.9723234109892651
 30
0.0
 11
-18.524362661649878
 21
5.9723234109892669
 31
0.0
  0
LINE
  5
FA
100
AcDbEntity
100
AcDbLine
  8
1
 62
256
370
-1
  6
ByLayer
 10
-16.7945332538670549
 20
5.7723234109892605
 30
0.0
 11
-17.7160722847843992
 21
5.7723234109892676
 31
0.0
  0
LINE
  5
FB
100
AcDbEntity
100
AcDbLine
  8
1
 62
256
370
-1
  6
ByLayer
 10
-16.1017129308395042
 20
6.1723234109892688
 30
0.0
 11
-15.6409434153808284
 21
6.9703996223425841
 31
0.0
  0
LINE
  5
FC
100
AcDbEntity
100
AcDbLine
  8
1
 62
256
370
-1
  6
ByLayer
 10
-15.7564134692187547
 20
7.1703996223425825
 30
0.0
 11
-15.4100033077049776
 21
7.7703996223425857
 31
0.0
  0
LINE
  5
FD
100
AcDbEntity
100
AcDbLine
  8
1
 62
256
370
-1
  6
ByLayer
 10
-15.6409434153808284
 20
6.9703996223425841
 30
0.0
 11
-15.7564134692187547
 21
7.1703996223425825
 31
0.0
  0
LINE
  5
FE
100
AcDbEntity
100
AcDbLine
  8
1
 62
256
370
-1
  6
ByLayer
 10
-14.7171829846774269
 20
6.5703996223425856
 30
0.0
 11
-14.3707728231636498
 21
7.1703996223425843
 31
0.0
  0
LINE
  5
FF
100
AcDbEntity
100
AcDbLine
  8
1
 62
256
370
-1
  6
ByLayer
 10
-14.9481230923532724
 20
6.5703996223425838
 30
0.0
 11
-14.7171829846774269
 21
6.5703996223425856
 31
0.0
  0
LINE
  5
100
100
AcDbEntity
100
AcDbLine
  8
1
 62
256
370
-1
  6
ByLayer
 10
-15.6398327154878007
 20
5.3723234109892655
 30
0.0
 11
-14.9481230923532724
 21
6.5703996223425838
 31
0.0
  0
LINE
  5
101
100
AcDbEntity
100
AcDbLine
  8
1
 62
256
370
-1
  6
ByLayer
 10
-9.906057291787052
 20
3.430126476058712
 30
0.0
 11
-10.2524674533008291
 21
4.0301264760587125
 31
0.0
  0
LINE
  5
102
100
AcDbEntity
100
AcDbLine
  8
1
 62
256
370
-1
  6
ByLayer
 10
-9.6751171841112047
 20
3.4301264760587094
 30
0.0
 11
-9.906057291787052
 21
3.430126476058712
 31
0.0
  0
LINE
  5
103
100
AcDbEntity
100
AcDbLine
  8
1
 62
256
370
-1
  6
ByLayer
 10
-8.8668268072457277
 20
4.0301264760587134
 30
0.0
 11
-9.2132369687594995
 21
4.6301264760587122
 31
0.0
  0
LINE
  5
104
100
AcDbEntity
100
AcDbLine
  8
1
 62
256
370
-1
  6
ByLayer
 10
-8.982296861083654
 20
3.830126476058715
 30
0.0
 11
-8.8668268072457277
 21
4.0301264760587134
 31
0.0
  0
LINE
  5
105
100
AcDbEntity
100
AcDbLine
  8
1
 62
256
370
-1
  6
ByLayer
 10
-13.9343241121196062
 20
0.3999989541559129
 30
0.0
 11
-18.1088960987901189
 21
0.3999986408324108
 31
0.0
  0
LINE
  5
106
100
AcDbEntity
100
AcDbLine
  8
1
 62
256
370
-1
  6
ByLayer
 10
-16.3326530385153532
 20
4.9723234109892669
 30
0.0
 11
-13.9343241121196062
 21
0.3999989541559129
 31
0.0
  0
LINE
  5
107
100
AcDbEntity
100
AcDbLine
  8
1
 62
256
370
-1
  6
ByLayer
 10
-15.6398327154878007
 20
5.3723234109892655
 30
0.0
 11
-12.5284414982711088
 21
0.3999990596747814
 31
0.0
  0
LINE
  5
108
100
AcDbEntity
100
AcDbLine
  8
1
 62
256
370
-1
  6
ByLayer
 10
-8.1729327231097262
 20
0.3999993865785474
 30
0.0
 11
-9.6751171841112047
 21
3.4301264760587094
 31
0.0
  0
LINE
  5
109
100
AcDbEntity
100
AcDbLine
  8
1
 62
256
370
-1
  6
ByLayer
 10
-8.1729327231097262
 20
0.3999993865785474
 30
0.0
 11
-12.5284414982711088
 21
0.3999990596747814
 31
0.0
  0
LINE
  5
10A
100
AcDbEntity
100
AcDbLine
  8
1
 62
256
370
-1
  6
ByLayer
 10
-8.982296861083654
 20
3.830126476058715
 30
0.0
 11
-6.7611352933677082
 21
0.4068769516594938
 31
0.0
  0
LINE
  5
10B
100
AcDbEntity
100
AcDbLine
  8
1
 62
256
370
-1
  6
ByLayer
 10
-10.2524668483364678
 20
-4.0301280150615391
 30
0.0
 11
-9.9060565967564074
 21
-4.630127963061728
 31
0.0
  0
LINE
  5
10C
100
AcDbEntity
100
AcDbLine
  8
1
 62
256
370
-1
  6
ByLayer
 10
-9.2132362737288602
 20
-4.6301278590621342
 30
0.0
 11
-9.9060565967564074
 21
-4.630127963061728
 31
0.0
  0
LINE
  5
10D
100
AcDbEntity
100
AcDbLine
  8
1
 62
256
370
-1
  6
ByLayer
 10
-21.3594508337649067
 20
-4.0301288486989124
 30
0.0
 11
-21.0130405821848463
 21
-4.6301287966991049
 31
0.0
  0
LINE
  5
10E
100
AcDbEntity
100
AcDbLine
  8
1
 62
256
370
-1
  6
ByLayer
 10
-20.3202202591572956
 20
-4.6301286926995164
 30
0.0
 11
-21.0130405821848463
 21
-4.6301287966991049
 31
0.0
  0
LINE
  5
10F
100
AcDbEntity
100
AcDbLine
  8
1
 62
256
370
-1
  6
ByLayer
 10
-18.5243619452738812
 20
-4.7723261916902882
 30
0.0
 11
-18.8707720167213573
 21
-5.3723262436900905
 31
0.0
  0
LINE
  5
110
100
AcDbEntity
100
AcDbLine
  8
1
 62
256
370
-1
  6
ByLayer
 10
-18.5243617651413004
 20
-5.9723261916902732
 30
0.0
 11
-18.8707720167213573
 21
-5.3723262436900905
 31
0.0
  0
LINE
  5
111
100
AcDbEntity
100
AcDbLine
  8
1
 62
256
370
-1
  6
ByLayer
 10
-15.4100021412863395
 20
-7.7704019355455758
 30
0.0
 11
-14.7171818182587977
 21
-7.7704018315459793
 31
0.0
  0
LINE
  5
112
100
AcDbEntity
100
AcDbLine
  8
1
 62
256
370
-1
  6
ByLayer
 10
-14.3707717468113163
 20
-7.1704017795461885
 30
0.0
 11
-14.7171818182587977
 21
-7.7704018315459793
 31
0.0
  0
LINE
  5
113
100
AcDbEntity
100
AcDbLine
  8
1
 62
256
370
-1
  6
ByLayer
 10
-25.0112012686058378
 20
-0.6000018772217841
 30
0.0
 11
-25.704021651677575
 21
-0.6000019292216019
 31
0.0
  0
LINE
  5
114
100
AcDbEntity
100
AcDbLine
  8
1
 62
256
370
-1
  6
ByLayer
 10
-24.8957312497936911
 20
-0.4000018685551619
 30
0.0
 11
-25.0112012686058378
 21
-0.6000018772217841
 31
0.0
  0
LINE
  5
115
100
AcDbEntity
100
AcDbLine
  8
1
 62
256
370
-1
  6
ByLayer
 10
-19.0326564294198661
 20
-0.4000014285006652
 30
0.0
 11
-24.8957312497936911
 21
-0.4000018685551619
 31
0.0
  0
LINE
  5
116
100
AcDbEntity
100
AcDbLine
  8
1
 62
256
370
-1
  6
ByLayer
 10
-19.0326564294198661
 20
-0.4000014285006652
 30
0.0
 11
-20.7821006546415745
 21
-3.4301287620325933
 31
0.0
  0
LINE
  5
117
100
AcDbEntity
100
AcDbLine
  8
1
 62
256
370
-1
  6
ByLayer
 10
-21.0130407623174271
 20
-3.4301287966991345
 30
0.0
 11
-21.3594508337649067
 21
-4.0301288486989124
 31
0.0
  0
LINE
  5
118
100
AcDbEntity
100
AcDbLine
  8
1
 62
256
370
-1
  6
ByLayer
 10
-20.7821006546415745
 20
-3.4301287620325933
 30
0.0
 11
-21.0130407623174271
 21
-3.4301287966991345
 31
0.0
  0
LINE
  5
119
100
AcDbEntity
100
AcDbLine
  8
1
 62
256
370
-1
  6
ByLayer
 10
-19.973810187709816
 20
-4.0301286406997354
 30
0.0
 11
-20.3202202591572956
 21
-4.6301286926995164
 31
0.0
  0
LINE
  5
11A
100
AcDbEntity
100
AcDbLine
  8
1
 62
256
370
-1
  6
ByLayer
 10
-20.0892802715698444
 20
-3.8301286580329901
 30
0.0
 11
-19.973810187709816
 21
-4.0301286406997354
 31
0.0
  0
LINE
  5
11B
100
AcDbEntity
100
AcDbLine
  8
1
 62
256
370
-1
  6
ByLayer
 10
-18.1088960387459217
 20
-0.4000013591675929
 30
0.0
 11
-20.0892802715698444
 21
-3.8301286580329901
 31
0.0
  0
LINE
  5
11C
100
AcDbEntity
100
AcDbLine
  8
1
 62
256
370
-1
  6
ByLayer
 10
-16.3326522921172845
 20
-4.9723258626916964
 30
0.0
 11
-17.7160715383863199
 21
-4.9723260703574308
 31
0.0
  0
LINE
  5
11D
100
AcDbEntity
100
AcDbLine
  8
1
 62
256
370
-1
  6
ByLayer
 10
-17.7160715383863199
 20
-4.9723260703574308
 30
0.0
 11
-17.8315416222463377
 21
-4.772326087690697
 31
0.0
  0
LINE
  5
11E
100
AcDbEntity
100
AcDbLine
  8
1
 62
256
370
-1
  6
ByLayer
 10
-17.8315416222463377
 20
-4.772326087690697
 30
0.0
 11
-18.5243619452738812
 21
-4.7723261916902882
 31
0.0
  0
LINE
  5
11F
100
AcDbEntity
100
AcDbLine
  8
1
 62
256
370
-1
  6
ByLayer
 10
-17.7160714182979291
 20
-5.7723260703574155
 30
0.0
 11
-17.8315414421137568
 21
-5.9723260876906865
 31
0.0
  0
LINE
  5
120
100
AcDbEntity
100
AcDbLine
  8
1
 62
256
370
-1
  6
ByLayer
 10
-17.8315414421137568
 20
-5.9723260876906865
 30
0.0
 11
-18.5243617651413004
 21
-5.9723261916902732
 31
0.0
  0
LINE
  5
121
100
AcDbEntity
100
AcDbLine
  8
1
 62
256
370
-1
  6
ByLayer
 10
-16.7945323873805847
 20
-5.7723259320247511
 30
0.0
 11
-17.7160714182979291
 21
-5.7723260703574155
 31
0.0
  0
LINE
  5
122
100
AcDbEntity
100
AcDbLine
  8
1
 62
256
370
-1
  6
ByLayer
 10
-16.1017120043088475
 20
-6.1723258280251505
 30
0.0
 11
-15.6409423690505811
 21
-6.9704019702121167
 31
0.0
  0
LINE
  5
123
100
AcDbEntity
100
AcDbLine
  8
1
 62
256
370
-1
  6
ByLayer
 10
-15.7564123928664017
 20
-7.1704019875453842
 30
0.0
 11
-15.4100021412863395
 21
-7.7704019355455758
 31
0.0
  0
LINE
  5
124
100
AcDbEntity
100
AcDbLine
  8
1
 62
256
370
-1
  6
ByLayer
 10
-15.6409423690505811
 20
-6.9704019702121167
 30
0.0
 11
-15.7564123928664017
 21
-7.1704019875453842
 31
0.0
  0
LINE
  5
125
100
AcDbEntity
100
AcDbLine
  8
1
 62
256
370
-1
  6
ByLayer
 10
-14.7171819983913732
 20
-6.5704018315459987
 30
0.0
 11
-14.3707717468113163
 21
-7.1704017795461885
 31
0.0
  0
LINE
  5
126
100
AcDbEntity
100
AcDbLine
  8
1
 62
256
370
-1
  6
ByLayer
 10
-14.948122106067224
 20
-6.5704018662125234
 30
0.0
 11
-14.7171819983913732
 21
-6.5704018315459987
 31
0.0
  0
LINE
  5
127
100
AcDbEntity
100
AcDbLine
  8
1
 62
256
370
-1
  6
ByLayer
 10
-15.6398319090455473
 20
-5.3723257586920887
 30
0.0
 11
-14.948122106067224
 21
-6.5704018662125234
 31
0.0
  0
LINE
  5
128
100
AcDbEntity
100
AcDbLine
  8
1
 62
256
370
-1
  6
ByLayer
 10
-9.9060567768889864
 20
-3.4301279630617429
 30
0.0
 11
-10.2524668483364678
 21
-4.0301280150615391
 31
0.0
  0
LINE
  5
129
100
AcDbEntity
100
AcDbLine
  8
1
 62
256
370
-1
  6
ByLayer
 10
-9.6751166692131445
 20
-3.4301279283952084
 30
0.0
 11
-9.9060567768889864
 21
-3.4301279630617429
 31
0.0
  0
LINE
  5
12A
100
AcDbEntity
100
AcDbLine
  8
1
 62
256
370
-1
  6
ByLayer
 10
-8.8668262022813877
 20
-4.0301278070623452
 30
0.0
 11
-9.2132362737288602
 21
-4.6301278590621342
 31
0.0
  0
LINE
  5
12B
100
AcDbEntity
100
AcDbLine
  8
1
 62
256
370
-1
  6
ByLayer
 10
-8.9822962861414055
 20
-3.8301278243956145
 30
0.0
 11
-8.8668262022813877
 21
-4.0301278070623452
 31
0.0
  0
LINE
  5
12C
100
AcDbEntity
100
AcDbLine
  8
1
 62
256
370
-1
  6
ByLayer
 10
-13.9343240520754108
 20
-0.4000010458440793
 30
0.0
 11
-18.1088960387459217
 21
-0.4000013591675929
 31
0.0
  0
LINE
  5
12D
100
AcDbEntity
100
AcDbLine
  8
1
 62
256
370
-1
  6
ByLayer
 10
-16.3326522921172845
 20
-4.9723258626916964
 30
0.0
 11
-13.9343240520754108
 21
-0.4000010458440793
 31
0.0
  0
LINE
  5
12E
100
AcDbEntity
100
AcDbLine
  8
1
 62
256
370
-1
  6
ByLayer
 10
-15.6398319090455473
 20
-5.3723257586920887
 30
0.0
 11
-12.5284414382269169
 21
-0.400000940325225
 31
0.0
  0
LINE
  5
12F
100
AcDbEntity
100
AcDbLine
  8
1
 62
256
370
-1
  6
ByLayer
 10
-8.1729326630655343
 20
-0.4000006134214499
 30
0.0
 11
-9.6751166692131445
 21
-3.4301279283952084
 31
0.0
  0
LINE
  5
130
100
AcDbEntity
100
AcDbLine
  8
1
 62
256
370
-1
  6
ByLayer
 10
-8.1729326630655343
 20
-0.4000006134214499
 30
0.0
 11
-12.5284414382269169
 21
-0.400000940325225
 31
0.0
  0
LINE
  5
131
100
AcDbEntity
100
AcDbLine
  8
1
 62
256
370
-1
  6
ByLayer
 10
-8.9822962861414055
 20
-3.8301278243956145
 30
0.0
 11
-6.7611352322911342
 21
-0.406877966576791
 31
0.0
  0
LINE
  5
132
100
AcDbEntity
100
AcDbLine
  8
1
 62
256
370
-1
  6
ByLayer
 10
-25.704021651677575
 20
-0.6000019292216019
 30
0.0
 11
-26.0504318582244991
 21
-0.0000019552214878
 31
0.0
  0
LINE
  5
133
100
AcDbEntity
100
AcDbLine
  8
1
 62
256
370
-1
  6
ByLayer
 10
-25.7040217417438654
 20
0.5999980707784009
 30
0.0
 11
-26.0504318582244991
 21
-0.0000019552214878
 31
0.0
  0
LINE
  5
134
100
AcDbEntity
100
AcDbLine
  8
1
 62
256
370
-1
  6
ByLayer
 10
-18.9248247753039145
 20
9.0620965610511153
 30
0.0
 11
-18.5784146137901338
 21
9.662096561051122
 31
0.0
  0
LINE
  5
135
100
AcDbEntity
100
AcDbLine
  8
1
 62
256
370
-1
  6
ByLayer
 10
-17.8855942907625867
 20
9.6620965610511131
 30
0.0
 11
-18.5784146137901338
 21
9.662096561051122
 31
0.0
  0
LINE
  5
136
100
AcDbEntity
100
AcDbLine
  8
1
 62
256
370
-1
  6
ByLayer
 10
-18.5784146137901338
 20
8.4620965610511192
 30
0.0
 11
-18.9248247753039145
 21
9.0620965610511153
 31
0.0
  0
LINE
  5
137
100
AcDbEntity
100
AcDbLine
  8
1
 62
256
370
-1
  6
ByLayer
 10
-17.5391841292488095
 20
9.0620965610511206
 30
0.0
 11
-17.8855942907625867
 21
9.6620965610511131
 31
0.0
  0
LINE
  5
138
100
AcDbEntity
100
AcDbLine
  8
1
 62
256
370
-1
  6
ByLayer
 10
-18.9248234149879728
 20
-9.0620994018656642
 30
0.0
 11
-18.578413163407923
 21
-9.6620993498658532
 31
0.0
  0
LINE
  5
139
100
AcDbEntity
100
AcDbLine
  8
1
 62
256
370
-1
  6
ByLayer
 10
-17.8855928403803865
 20
-9.6620992458662531
 30
0.0
 11
-18.578413163407923
 21
-9.6620993498658532
 31
0.0
  0
LINE
  5
13A
100
AcDbEntity
100
AcDbLine
  8
1
 62
256
370
-1
  6
ByLayer
 10
-18.5784133435405074
 20
-8.4620993498658663
 30
0.0
 11
-18.9248234149879728
 21
-9.0620994018656642
 31
0.0
  0
LINE
  5
13B
100
AcDbEntity
100
AcDbLine
  8
1
 62
256
370
-1
  6
ByLayer
 10
-17.5391827689328927
 20
-9.0620991938664712
 30
0.0
 11
-17.8855928403803865
 21
-9.6620992458662531
 31
0.0
  0
LINE
  5
13C
100
AcDbEntity
100
AcDbLine
  8
1
 62
256
370
-1
  6
ByLayer
 10
-16.7945323873805847
 20
-5.7723259320247511
 30
0.0
 11
-18.3474732358646584
 21
-8.4620993151993371
 31
0.0
  0
LINE
  5
13D
100
AcDbEntity
100
AcDbLine
  8
1
 62
256
370
-1
  6
ByLayer
 10
-18.3474732358646584
 20
-8.4620993151993371
 30
0.0
 11
-18.5784133435405074
 21
-8.4620993498658663
 31
0.0
  0
LINE
  5
13E
100
AcDbEntity
100
AcDbLine
  8
1
 62
256
370
-1
  6
ByLayer
 10
-16.1017120043088475
 20
-6.1723258280251505
 30
0.0
 11
-17.6546528527929247
 21
-8.8620992111997374
 31
0.0
  0
LINE
  5
13F
100
AcDbEntity
100
AcDbLine
  8
1
 62
256
370
-1
  6
ByLayer
 10
-17.6546528527929247
 20
-8.8620992111997374
 30
0.0
 11
-17.5391827689328927
 21
-9.0620991938664712
 31
0.0
  0
LINE
  5
140
100
AcDbEntity
100
AcDbLine
  8
1
 62
256
370
-1
  6
ByLayer
 10
-16.7945332538670549
 20
5.7723234109892605
 30
0.0
 11
-18.3474745061142883
 21
8.4620965610511139
 31
0.0
  0
LINE
  5
141
100
AcDbEntity
100
AcDbLine
  8
1
 62
256
370
-1
  6
ByLayer
 10
-18.3474745061142883
 20
8.4620965610511139
 30
0.0
 11
-18.5784146137901338
 21
8.4620965610511192
 31
0.0
  0
LINE
  5
142
100
AcDbEntity
100
AcDbLine
  8
1
 62
256
370
-1
  6
ByLayer
 10
-16.1017129308395042
 20
6.1723234109892688
 30
0.0
 11
-17.6546541830867376
 21
8.8620965610511142
 31
0.0
  0
LINE
  5
143
100
AcDbEntity
100
AcDbLine
  8
1
 62
256
370
-1
  6
ByLayer
 10
-17.6546541830867376
 20
8.8620965610511142
 30
0.0
 11
-17.5391841292488095
 21
9.0620965610511206
 31
0.0
  0
LINE
  5
144
100
AcDbEntity
100
AcDbLine
  8
1
 62
256
370
-1
  6
ByLayer
 10
-8.6164256353815176
 20
-6.8638340280023096
 30
0.0
 11
-8.9628357968952947
 21
-6.2638340280023082
 31
0.0
  0
LINE
  5
145
100
AcDbEntity
100
AcDbLine
  8
1
 62
256
370
-1
  6
ByLayer
 10
-8.6164256353815158
 20
-5.6638340280023085
 30
0.0
 11
-8.9628357968952947
 21
-6.2638340280023082
 31
0.0
  0
LINE
  5
146
100
AcDbEntity
100
AcDbLine
  8
1
 62
256
370
-1
  6
ByLayer
 10
-14.1699169061445911
 20
-16.4827647356289511
 30
0.0
 11
-14.5163270676583629
 21
-15.8827647356289514
 31
0.0
  0
LINE
  5
147
100
AcDbEntity
100
AcDbLine
  8
1
 62
256
370
-1
  6
ByLayer
 10
-14.1699169061445769
 20
-15.2827647356289553
 30
0.0
 11
-14.5163270676583629
 21
-15.8827647356289514
 31
0.0
  0
LINE
  5
148
100
AcDbEntity
100
AcDbLine
  8
1
 62
256
370
-1
  6
ByLayer
 10
-13.3951346398168525
 20
-13.6564069484100745
 30
0.0
 11
-14.0879549628444014
 21
-13.6564069484100781
 31
0.0
  0
LINE
  5
149
100
AcDbEntity
100
AcDbLine
  8
1
 62
256
370
-1
  6
ByLayer
 10
-14.4343651243581785
 20
-13.0564069484100749
 30
0.0
 11
-14.0879549628444014
 21
-13.6564069484100781
 31
0.0
  0
LINE
  5
14A
100
AcDbEntity
100
AcDbLine
  8
1
 62
256
370
-1
  6
ByLayer
 10
-14.434365124358175
 20
-9.4602545257034478
 30
0.0
 11
-14.0879549628444014
 21
-8.8602545257034411
 31
0.0
  0
LINE
  5
14B
100
AcDbEntity
100
AcDbLine
  8
1
 62
256
370
-1
  6
ByLayer
 10
-13.3951346398168472
 20
-8.8602545257034464
 30
0.0
 11
-14.0879549628444014
 21
-8.8602545257034411
 31
0.0
  0
LINE
  5
14C
100
AcDbEntity
100
AcDbLine
  8
1
 62
256
370
-1
  6
ByLayer
 10
-13.0252142958849735
 20
-21.3603366943888169
 30
0.0
 11
-13.371624442387688
 21
-21.9603367723885157
 31
0.0
  0
LINE
  5
14D
100
AcDbEntity
100
AcDbLine
  8
1
 62
256
370
-1
  6
ByLayer
 10
-12.7942741982164776
 20
-21.3603366943888275
 30
0.0
 11
-13.0252142958849735
 21
-21.3603366943888169
 31
0.0
  0
LINE
  5
14E
100
AcDbEntity
100
AcDbLine
  8
1
 62
256
370
-1
  6
ByLayer
 10
-9.8627371691279553
 20
-16.2827647356289553
 30
0.0
 11
-12.7942741982164776
 21
-21.3603366943888275
 31
0.0
  0
LINE
  5
14F
100
AcDbEntity
100
AcDbLine
  8
1
 62
256
370
-1
  6
ByLayer
 10
-9.8627371691279553
 20
-16.2827647356289553
 30
0.0
 11
-13.3616265292791176
 21
-16.2827647356289482
 31
0.0
  0
LINE
  5
150
100
AcDbEntity
100
AcDbLine
  8
1
 62
256
370
-1
  6
ByLayer
 10
-13.4770965831170351
 20
-16.4827647356289546
 30
0.0
 11
-14.1699169061445911
 21
-16.4827647356289511
 31
0.0
  0
LINE
  5
151
100
AcDbEntity
100
AcDbLine
  8
1
 62
256
370
-1
  6
ByLayer
 10
-13.3616265292791176
 20
-16.2827647356289482
 30
0.0
 11
-13.4770965831170351
 21
-16.4827647356289546
 31
0.0
  0
LINE
  5
152
100
AcDbEntity
100
AcDbLine
  8
1
 62
256
370
-1
  6
ByLayer
 10
-13.4770965831170351
 20
-15.2827647356289518
 30
0.0
 11
-14.1699169061445769
 21
-15.2827647356289553
 31
0.0
  0
LINE
  5
153
100
AcDbEntity
100
AcDbLine
  8
1
 62
256
370
-1
  6
ByLayer
 10
-13.3616265292791141
 20
-15.4827647356289493
 30
0.0
 11
-13.4770965831170351
 21
-15.2827647356289518
 31
0.0
  0
LINE
  5
154
100
AcDbEntity
100
AcDbLine
  8
1
 62
256
370
-1
  6
ByLayer
 10
-9.4008570338351802
 20
-15.4827647356289475
 30
0.0
 11
-13.3616265292791141
 21
-15.4827647356289493
 31
0.0
  0
LINE
  5
155
100
AcDbEntity
100
AcDbLine
  8
1
 62
256
370
-1
  6
ByLayer
 10
-12.4724849090064716
 20
-11.6583307370567653
 30
0.0
 11
-13.1641945321410034
 21
-12.8564069484100791
 31
0.0
  0
LINE
  5
156
100
AcDbEntity
100
AcDbLine
  8
1
 62
256
370
-1
  6
ByLayer
 10
-13.1641945321410034
 20
-12.8564069484100791
 30
0.0
 11
-13.0487244783030718
 21
-13.0564069484100855
 31
0.0
  0
LINE
  5
157
100
AcDbEntity
100
AcDbLine
  8
1
 62
256
370
-1
  6
ByLayer
 10
-13.0487244783030718
 20
-13.0564069484100855
 30
0.0
 11
-13.3951346398168525
 21
-13.6564069484100745
 31
0.0
  0
LINE
  5
158
100
AcDbEntity
100
AcDbLine
  8
1
 62
256
370
-1
  6
ByLayer
 10
-13.857014855168547
 20
-12.4564069484100788
 30
0.0
 11
-14.0879549628443961
 21
-12.4564069484100823
 31
0.0
  0
LINE
  5
159
100
AcDbEntity
100
AcDbLine
  8
1
 62
256
370
-1
  6
ByLayer
 10
-14.0879549628443961
 20
-12.4564069484100823
 30
0.0
 11
-14.4343651243581785
 21
-13.0564069484100749
 31
0.0
  0
LINE
  5
15A
100
AcDbEntity
100
AcDbLine
  8
1
 62
256
370
-1
  6
ByLayer
 10
-13.3962453397098731
 20
-11.6583307370567617
 30
0.0
 11
-13.857014855168547
 21
-12.4564069484100788
 31
0.0
  0
LINE
  5
15B
100
AcDbEntity
100
AcDbLine
  8
1
 62
256
370
-1
  6
ByLayer
 10
-13.3962453397098766
 20
-10.8583307370567663
 30
0.0
 11
-13.8570148551685541
 21
-10.0602545257034439
 31
0.0
  0
LINE
  5
15C
100
AcDbEntity
100
AcDbLine
  8
1
 62
256
370
-1
  6
ByLayer
 10
-14.0879549628443979
 20
-10.0602545257034492
 30
0.0
 11
-14.434365124358175
 21
-9.4602545257034478
 31
0.0
  0
LINE
  5
15D
100
AcDbEntity
100
AcDbLine
  8
1
 62
256
370
-1
  6
ByLayer
 10
-13.8570148551685541
 20
-10.0602545257034439
 30
0.0
 11
-14.0879549628443979
 21
-10.0602545257034492
 31
0.0
  0
LINE
  5
15E
100
AcDbEntity
100
AcDbLine
  8
1
 62
256
370
-1
  6
ByLayer
 10
-13.0487244783030736
 20
-9.460254525703446
 30
0.0
 11
-13.3951346398168472
 21
-8.8602545257034464
 31
0.0
  0
LINE
  5
15F
100
AcDbEntity
100
AcDbLine
  8
1
 62
256
370
-1
  6
ByLayer
 10
-13.1641945321409999
 20
-9.66025452570344
 30
0.0
 11
-13.0487244783030736
 21
-9.460254525703446
 31
0.0
  0
LINE
  5
160
100
AcDbEntity
100
AcDbLine
  8
1
 62
256
370
-1
  6
ByLayer
 10
-12.4724849090064698
 20
-10.8583307370567645
 30
0.0
 11
-13.1641945321409999
 21
-9.66025452570344
 31
0.0
  0
LINE
  5
161
100
AcDbEntity
100
AcDbLine
  8
1
 62
256
370
-1
  6
ByLayer
 10
-7.9236053123539678
 20
-6.863834028002306
 30
0.0
 11
-8.6164256353815176
 21
-6.8638340280023096
 31
0.0
  0
LINE
  5
162
100
AcDbEntity
100
AcDbLine
  8
1
 62
256
370
-1
  6
ByLayer
 10
-7.8081352585160415
 20
-6.6638340280023094
 30
0.0
 11
-7.9236053123539678
 21
-6.863834028002306
 31
0.0
  0
LINE
  5
163
100
AcDbEntity
100
AcDbLine
  8
1
 62
256
370
-1
  6
ByLayer
 10
-7.9236053123539696
 20
-5.6638340280023067
 30
0.0
 11
-8.6164256353815158
 21
-5.6638340280023085
 31
0.0
  0
LINE
  5
164
100
AcDbEntity
100
AcDbLine
  8
1
 62
256
370
-1
  6
ByLayer
 10
-7.8081352585160468
 20
-5.8638340280023069
 30
0.0
 11
-7.9236053123539696
 21
-5.6638340280023067
 31
0.0
  0
LINE
  5
165
100
AcDbEntity
100
AcDbLine
  8
1
 62
256
370
-1
  6
ByLayer
 10
-7.3135713118460357
 20
-11.8674791885836637
 30
0.0
 11
-9.4008570338351802
 21
-15.4827647356289475
 31
0.0
  0
LINE
  5
166
100
AcDbEntity
100
AcDbLine
  8
1
 62
256
370
-1
  6
ByLayer
 10
-12.4724849090064716
 20
-11.6583307370567653
 30
0.0
 11
-7.3135713118460357
 21
-11.8674791885836637
 31
0.0
  0
LINE
  5
167
100
AcDbEntity
100
AcDbLine
  8
1
 62
256
370
-1
  6
ByLayer
 10
-12.4724849090064698
 20
-10.8583307370567645
 30
0.0
 11
-6.6106300963038063
 21
-10.6499490774925611
 31
0.0
  0
LINE
  5
168
100
AcDbEntity
100
AcDbLine
  8
1
 62
256
370
-1
  6
ByLayer
 10
-4.4328759918300804
 20
-6.877967668344878
 30
0.0
 11
-7.8081352585160415
 21
-6.6638340280023094
 31
0.0
  0
LINE
  5
169
100
AcDbEntity
100
AcDbLine
  8
1
 62
256
370
-1
  6
ByLayer
 10
-4.4328759918300804
 20
-6.877967668344878
 30
0.0
 11
-6.6106300963038063
 21
-10.6499490774925611
 31
0.0
  0
LINE
  5
16A
100
AcDbEntity
100
AcDbLine
  8
1
 62
256
370
-1
  6
ByLayer
 10
-7.8081352585160468
 20
-5.8638340280023069
 30
0.0
 11
-3.7329334230353504
 21
-5.6518764466502409
 31
0.0
  0
LINE
  5
16B
100
AcDbEntity
100
AcDbLine
  8
1
 62
256
370
-1
  6
ByLayer
 10
-1.6360401826215902
 20
-10.8939607496479294
 30
0.0
 11
-0.9432198595940536
 21
-10.8939606456483329
 31
0.0
  0
LINE
  5
16C
100
AcDbEntity
100
AcDbLine
  8
1
 62
256
370
-1
  6
ByLayer
 10
-0.5968097881465704
 20
-10.2939605936485385
 30
0.0
 11
-0.9432198595940536
 21
-10.8939606456483329
 31
0.0
  0
LINE
  5
16D
100
AcDbEntity
100
AcDbLine
  8
1
 62
256
370
-1
  6
ByLayer
 10
-7.1895314533846522
 20
-20.5128914572745771
 30
0.0
 11
-6.496711130357113
 21
-20.5128913532749841
 31
0.0
  0
LINE
  5
16E
100
AcDbEntity
100
AcDbLine
  8
1
 62
256
370
-1
  6
ByLayer
 10
-6.1503010589096228
 20
-19.912891301275188
 30
0.0
 11
-6.496711130357113
 21
-20.5128913532749841
 31
0.0
  0
LINE
  5
16F
100
AcDbEntity
100
AcDbLine
  8
1
 62
256
370
-1
  6
ByLayer
 10
-5.129225255487297
 20
-18.4287311293500515
 30
0.0
 11
-4.7828150039072383
 21
-19.028731077350244
 31
0.0
  0
LINE
  5
170
100
AcDbEntity
100
AcDbLine
  8
1
 62
256
370
-1
  6
ByLayer
 10
-4.089994680879709
 20
-19.0287309733506476
 30
0.0
 11
-4.7828150039072383
 21
-19.028731077350244
 31
0.0
  0
LINE
  5
171
100
AcDbEntity
100
AcDbLine
  8
1
 62
256
370
-1
  6
ByLayer
 10
-0.9756355968449193
 20
-17.2306542944993559
 30
0.0
 11
-0.6292255253974565
 21
-16.6306542424995634
 31
0.0
  0
LINE
  5
172
100
AcDbEntity
100
AcDbLine
  8
1
 62
256
370
-1
  6
ByLayer
 10
-0.9756357769775038
 20
-16.0306542944993673
 30
0.0
 11
-0.6292255253974565
 21
-16.6306542424995634
 31
0.0
  0
LINE
  5
173
100
AcDbEntity
100
AcDbLine
  8
1
 62
256
370
-1
  6
ByLayer
 10
-11.9859837663105111
 20
-21.9603366163891245
 30
0.0
 11
-12.332393912813215
 21
-22.5603366943888233
 31
0.0
  0
LINE
  5
174
100
AcDbEntity
100
AcDbLine
  8
1
 62
256
370
-1
  6
ByLayer
 10
-12.101453845166839
 20
-21.7603366423890243
 30
0.0
 11
-11.9859837663105111
 21
-21.9603366163891245
 31
0.0
  0
LINE
  5
175
100
AcDbEntity
100
AcDbLine
  8
1
 62
256
370
-1
  6
ByLayer
 10
-9.1699168160782989
 20
-16.6827646836291628
 30
0.0
 11
-12.101453845166839
 21
-21.7603366423890243
 31
0.0
  0
LINE
  5
176
100
AcDbEntity
100
AcDbLine
  8
1
 62
256
370
-1
  6
ByLayer
 10
-9.1699168160782989
 20
-16.6827646836291628
 30
0.0
 11
-7.4204716811489009
 21
-19.7128914919411109
 31
0.0
  0
LINE
  5
177
100
AcDbEntity
100
AcDbLine
  8
1
 62
256
370
-1
  6
ByLayer
 10
-7.5359417049647206
 20
-19.912891509274381
 30
0.0
 11
-7.1895314533846522
 21
-20.5128914572745771
 31
0.0
  0
LINE
  5
178
100
AcDbEntity
100
AcDbLine
  8
1
 62
256
370
-1
  6
ByLayer
 10
-7.4204716811489009
 20
-19.7128914919411109
 30
0.0
 11
-7.5359417049647206
 21
-19.912891509274381
 31
0.0
  0
LINE
  5
179
100
AcDbEntity
100
AcDbLine
  8
1
 62
256
370
-1
  6
ByLayer
 10
-6.4967113104896947
 20
-19.312891353274992
 30
0.0
 11
-6.1503010589096228
 21
-19.912891301275188
 31
0.0
  0
LINE
  5
17A
100
AcDbEntity
100
AcDbLine
  8
1
 62
256
370
-1
  6
ByLayer
 10
-6.7276514181655571
 20
-19.3128913879415229
 30
0.0
 11
-6.4967113104896947
 21
-19.312891353274992
 31
0.0
  0
LINE
  5
17B
100
AcDbEntity
100
AcDbLine
  8
1
 62
256
370
-1
  6
ByLayer
 10
-8.7080366807855274
 20
-15.8827646836291532
 30
0.0
 11
-6.7276514181655571
 21
-19.3128913879415229
 31
0.0
  0
LINE
  5
17C
100
AcDbEntity
100
AcDbLine
  8
1
 62
256
370
-1
  6
ByLayer
 10
-3.8601656330732643
 20
-16.6306547274975571
 30
0.0
 11
-4.5518750763639817
 21
-17.828731042683728
 31
0.0
  0
LINE
  5
17D
100
AcDbEntity
100
AcDbLine
  8
1
 62
256
370
-1
  6
ByLayer
 10
-4.5518750763639817
 20
-17.828731042683728
 30
0.0
 11
-4.782815184039829
 21
-17.8287310773502554
 31
0.0
  0
LINE
  5
17E
100
AcDbEntity
100
AcDbLine
  8
1
 62
256
370
-1
  6
ByLayer
 10
-4.782815184039829
 20
-17.8287310773502554
 30
0.0
 11
-5.129225255487297
 21
-18.4287311293500515
 31
0.0
  0
LINE
  5
17F
100
AcDbEntity
100
AcDbLine
  8
1
 62
256
370
-1
  6
ByLayer
 10
-3.859054693292248
 20
-18.228730938684123
 30
0.0
 11
-3.7435846094322218
 21
-18.4287309213508621
 31
0.0
  0
LINE
  5
180
100
AcDbEntity
100
AcDbLine
  8
1
 62
256
370
-1
  6
ByLayer
 10
-3.7435846094322218
 20
-18.4287309213508621
 30
0.0
 11
-4.089994680879709
 21
-19.0287309733506476
 31
0.0
  0
LINE
  5
181
100
AcDbEntity
100
AcDbLine
  8
1
 62
256
370
-1
  6
ByLayer
 10
-3.3982852976331777
 20
-17.4306546581644781
 30
0.0
 11
-3.859054693292248
 21
-18.228730938684123
 31
0.0
  0
LINE
  5
182
100
AcDbEntity
100
AcDbLine
  8
1
 62
256
370
-1
  6
ByLayer
 10
-2.7054650346498303
 20
-17.0306545541648902
 30
0.0
 11
-1.7839260037324867
 21
-17.0306544158322239
 31
0.0
  0
LINE
  5
183
100
AcDbEntity
100
AcDbLine
  8
1
 62
256
370
-1
  6
ByLayer
 10
-1.6684559198724738
 20
-17.2306543984989489
 30
0.0
 11
-0.9756355968449193
 21
-17.2306542944993559
 31
0.0
  0
LINE
  5
184
100
AcDbEntity
100
AcDbLine
  8
1
 62
256
370
-1
  6
ByLayer
 10
-1.7839260037324867
 20
-17.0306544158322239
 30
0.0
 11
-1.6684559198724738
 21
-17.2306543984989489
 31
0.0
  0
LINE
  5
185
100
AcDbEntity
100
AcDbLine
  8
1
 62
256
370
-1
  6
ByLayer
 10
-1.6684561000050533
 20
-16.0306543984989602
 30
0.0
 11
-0.9756357769775038
 21
-16.0306542944993673
 31
0.0
  0
LINE
  5
186
100
AcDbEntity
100
AcDbLine
  8
1
 62
256
370
-1
  6
ByLayer
 10
-1.7839261238208874
 20
-16.2306544158322232
 30
0.0
 11
-1.6684561000050533
 21
-16.0306543984989602
 31
0.0
  0
LINE
  5
187
100
AcDbEntity
100
AcDbLine
  8
1
 62
256
370
-1
  6
ByLayer
 10
-3.1673453700899232
 20
-16.2306546234979621
 30
0.0
 11
-1.7839261238208874
 21
-16.2306544158322232
 31
0.0
  0
LINE
  5
188
100
AcDbEntity
100
AcDbLine
  8
1
 62
256
370
-1
  6
ByLayer
 10
-1.9824504342016569
 20
-10.2939608016477298
 30
0.0
 11
-1.6360401826215902
 21
-10.8939607496479294
 31
0.0
  0
LINE
  5
189
100
AcDbEntity
100
AcDbLine
  8
1
 62
256
370
-1
  6
ByLayer
 10
-1.8669804103858345
 20
-10.0939607843144685
 30
0.0
 11
-1.9824504342016569
 21
-10.2939608016477298
 31
0.0
  0
LINE
  5
18A
100
AcDbEntity
100
AcDbLine
  8
1
 62
256
370
-1
  6
ByLayer
 10
-0.9432200397266346
 20
-9.6939606456483514
 30
0.0
 11
-0.5968097881465704
 21
-10.2939605936485385
 31
0.0
  0
LINE
  5
18B
100
AcDbEntity
100
AcDbLine
  8
1
 62
256
370
-1
  6
ByLayer
 10
-1.1741601474024803
 20
-9.6939606803148806
 30
0.0
 11
-0.9432200397266346
 21
-9.6939606456483514
 31
0.0
  0
LINE
  5
18C
100
AcDbEntity
100
AcDbLine
  8
1
 62
256
370
-1
  6
ByLayer
 10
-6.6207509587963935
 20
-12.2674791365838605
 30
0.0
 11
-8.7080366807855274
 21
-15.8827646836291532
 31
0.0
  0
LINE
  5
18D
100
AcDbEntity
100
AcDbLine
  8
1
 62
256
370
-1
  6
ByLayer
 10
-3.8601656330732643
 20
-16.6306547274975571
 30
0.0
 11
-6.6207509587963935
 21
-12.2674791365838605
 31
0.0
  0
LINE
  5
18E
100
AcDbEntity
100
AcDbLine
  8
1
 62
256
370
-1
  6
ByLayer
 10
-3.1673453700899232
 20
-16.2306546234979621
 30
0.0
 11
-5.9178097432541534
 21
-11.0499490254927686
 31
0.0
  0
LINE
  5
18F
100
AcDbEntity
100
AcDbLine
  8
1
 62
256
370
-1
  6
ByLayer
 10
-3.7400556387804356
 20
-7.277967616345081
 30
0.0
 11
-1.8669804103858345
 21
-10.0939607843144685
 31
0.0
  0
LINE
  5
190
100
AcDbEntity
100
AcDbLine
  8
1
 62
256
370
-1
  6
ByLayer
 10
-3.7400556387804356
 20
-7.277967616345081
 30
0.0
 11
-5.9178097432541534
 21
-11.0499490254927686
 31
0.0
  0
LINE
  5
191
100
AcDbEntity
100
AcDbLine
  8
1
 62
256
370
-1
  6
ByLayer
 10
-1.1741601474024803
 20
-9.6939606803148806
 30
0.0
 11
-3.0282009608499125
 21
-6.0587538528745188
 31
0.0
  0
LINE
  5
192
100
AcDbEntity
100
AcDbLine
  8
1
 62
256
370
-1
  6
ByLayer
 10
-12.332393912813215
 20
-22.5603366943888233
 30
0.0
 11
-13.0252142358407763
 21
-22.5603367463886109
 31
0.0
  0
LINE
  5
193
100
AcDbEntity
100
AcDbLine
  8
1
 62
256
370
-1
  6
ByLayer
 10
-13.371624442387688
 20
-21.9603367723885157
 30
0.0
 11
-13.0252142358407763
 21
-22.5603367463886109
 31
0.0
  0
LINE
  5
194
100
AcDbEntity
100
AcDbLine
  8
1
 62
256
370
-1
  6
ByLayer
 10
-17.3104182210698276
 20
-11.8583307370567592
 30
0.0
 11
-17.6568283825835977
 21
-11.2583307370567596
 31
0.0
  0
LINE
  5
195
100
AcDbEntity
100
AcDbLine
  8
1
 62
256
370
-1
  6
ByLayer
 10
-17.3104182210698241
 20
-10.6583307370567582
 30
0.0
 11
-17.6568283825835977
 21
-11.2583307370567596
 31
0.0
  0
LINE
  5
196
100
AcDbEntity
100
AcDbLine
  8
1
 62
256
370
-1
  6
ByLayer
 10
-16.6175978980422734
 20
-11.8583307370567592
 30
0.0
 11
-17.3104182210698276
 21
-11.8583307370567592
 31
0.0
  0
LINE
  5
197
100
AcDbEntity
100
AcDbLine
  8
1
 62
256
370
-1
  6
ByLayer
 10
-16.6175978980422734
 20
-10.6583307370567617
 30
0.0
 11
-17.3104182210698241
 21
-10.6583307370567582
 31
0.0
  0
LINE
  5
198
100
AcDbEntity
100
AcDbLine
  8
1
 62
256
370
-1
  6
ByLayer
 10
-1.6144034138585615
 20
-20.9204275404469904
 30
0.0
 11
-0.9215830908310116
 21
-20.920427436447401
 31
0.0
  0
LINE
  5
199
100
AcDbEntity
100
AcDbLine
  8
1
 62
256
370
-1
  6
ByLayer
 10
-0.5751730193835403
 20
-20.320427384447612
 30
0.0
 11
-0.9215830908310116
 21
-20.920427436447401
 31
0.0
  0
LINE
  5
19A
100
AcDbEntity
100
AcDbLine
  8
1
 62
256
370
-1
  6
ByLayer
 10
-1.9608136654386386
 20
-20.320427592446805
 30
0.0
 11
-1.6144034138585615
 21
-20.9204275404469904
 31
0.0
  0
LINE
  5
19B
100
AcDbEntity
100
AcDbLine
  8
1
 62
256
370
-1
  6
ByLayer
 10
-0.9215832709636068
 20
-19.7204274364474159
 30
0.0
 11
-0.5751730193835403
 21
-20.320427384447612
 31
0.0
  0
LINE
  5
19C
100
AcDbEntity
100
AcDbLine
  8
1
 62
256
370
-1
  6
ByLayer
 10
-3.3982852976331777
 20
-17.4306546581644781
 30
0.0
 11
-1.8453436416228086
 21
-20.120427575113542
 31
0.0
  0
LINE
  5
19D
100
AcDbEntity
100
AcDbLine
  8
1
 62
256
370
-1
  6
ByLayer
 10
-1.8453436416228086
 20
-20.120427575113542
 30
0.0
 11
-1.9608136654386386
 21
-20.320427592446805
 31
0.0
  0
LINE
  5
19E
100
AcDbEntity
100
AcDbLine
  8
1
 62
256
370
-1
  6
ByLayer
 10
-2.7054650346498303
 20
-17.0306545541648902
 30
0.0
 11
-1.1525233786394602
 21
-19.7204274711139504
 31
0.0
  0
LINE
  5
19F
100
AcDbEntity
100
AcDbLine
  8
1
 62
256
370
-1
  6
ByLayer
 10
-1.1525233786394602
 20
-19.7204274711139504
 30
0.0
 11
-0.9215832709636068
 21
-19.7204274364474159
 31
0.0
  0
LINE
  5
1A0
100
AcDbEntity
100
AcDbLine
  8
1
 62
256
370
-1
  6
ByLayer
 10
-13.3962453397098731
 20
-11.6583307370567617
 30
0.0
 11
-16.5021278442043418
 21
-11.6583307370567635
 31
0.0
  0
LINE
  5
1A1
100
AcDbEntity
100
AcDbLine
  8
1
 62
256
370
-1
  6
ByLayer
 10
-16.5021278442043418
 20
-11.6583307370567635
 30
0.0
 11
-16.6175978980422734
 21
-11.8583307370567592
 31
0.0
  0
LINE
  5
1A2
100
AcDbEntity
100
AcDbLine
  8
1
 62
256
370
-1
  6
ByLayer
 10
-13.3962453397098766
 20
-10.8583307370567663
 30
0.0
 11
-16.5021278442043418
 21
-10.8583307370567663
 31
0.0
  0
LINE
  5
1A3
100
AcDbEntity
100
AcDbLine
  8
1
 62
256
370
-1
  6
ByLayer
 10
-16.5021278442043418
 20
-10.8583307370567663
 30
0.0
 11
-16.6175978980422734
 21
-10.6583307370567617
 31
0.0
  0
LINE
  5
1A4
100
AcDbEntity
100
AcDbLine
  8
1
 62
256
370
-1
  6
ByLayer
 10
1.6360418179193088
 20
-10.8939605040610221
 30
0.0
 11
0.9432214948917644
 21
-10.8939605040610239
 31
0.0
  0
LINE
  5
1A5
100
AcDbEntity
100
AcDbLine
  8
1
 62
256
370
-1
  6
ByLayer
 10
0.5968113333779858
 20
-10.2939605040610207
 30
0.0
 11
0.9432214948917644
 21
-10.8939605040610239
 31
0.0
  0
LINE
  5
1A6
100
AcDbEntity
100
AcDbLine
  8
1
 62
256
370
-1
  6
ByLayer
 10
7.189534532584684
 20
-20.5128903780502867
 30
0.0
 11
6.496714209557136
 21
-20.5128903780502831
 31
0.0
  0
LINE
  5
1A7
100
AcDbEntity
100
AcDbLine
  8
1
 62
256
370
-1
  6
ByLayer
 10
6.1503040480433517
 20
-19.9128903780502817
 30
0.0
 11
6.496714209557136
 21
-20.5128903780502831
 31
0.0
  0
LINE
  5
1A8
100
AcDbEntity
100
AcDbLine
  8
1
 62
256
370
-1
  6
ByLayer
 10
5.1292280218330308
 20
-18.4287303593993457
 30
0.0
 11
4.7828178603192617
 21
-19.0287303593993471
 31
0.0
  0
LINE
  5
1A9
100
AcDbEntity
100
AcDbLine
  8
1
 62
256
370
-1
  6
ByLayer
 10
4.0899975372917066
 20
-19.0287303593993471
 30
0.0
 11
4.7828178603192617
 21
-19.0287303593993471
 31
0.0
  0
LINE
  5
1AA
100
AcDbEntity
100
AcDbLine
  8
1
 62
256
370
-1
  6
ByLayer
 10
0.9756381833468046
 20
-17.2306541480460318
 30
0.0
 11
0.6292280218330312
 21
-16.6306541480460304
 31
0.0
  0
LINE
  5
1AB
100
AcDbEntity
100
AcDbLine
  8
1
 62
256
370
-1
  6
ByLayer
 10
0.9756381833468055
 20
-16.030654148046029
 30
0.0
 11
0.6292280218330312
 21
-16.6306541480460304
 31
0.0
  0
LINE
  5
1AC
100
AcDbEntity
100
AcDbLine
  8
1
 62
256
370
-1
  6
ByLayer
 10
11.9859870627871636
 20
-21.9603348171670305
 30
0.0
 11
12.3323972993561881
 21
-22.5603348431669204
 31
0.0
  0
LINE
  5
1AD
100
AcDbEntity
100
AcDbLine
  8
1
 62
256
370
-1
  6
ByLayer
 10
12.1014571116214
 20
-21.7603348258336666
 30
0.0
 11
11.9859870627871636
 21
-21.9603348171670305
 31
0.0
  0
LINE
  5
1AE
100
AcDbEntity
100
AcDbLine
  8
1
 62
256
370
-1
  6
ByLayer
 10
9.1699193203361151
 20
-16.682763307128301
 30
0.0
 11
12.1014571116214
 21
-21.7603348258336666
 31
0.0
  0
LINE
  5
1AF
100
AcDbEntity
100
AcDbLine
  8
1
 62
256
370
-1
  6
ByLayer
 10
9.1699193203361151
 20
-16.682763307128301
 30
0.0
 11
7.4204746402605286
 21
-19.7128903780502824
 31
0.0
  0
LINE
  5
1B0
100
AcDbEntity
100
AcDbLine
  8
1
 62
256
370
-1
  6
ByLayer
 10
7.5359446940984478
 20
-19.9128903780502888
 30
0.0
 11
7.189534532584684
 21
-20.5128903780502867
 31
0.0
  0
LINE
  5
1B1
100
AcDbEntity
100
AcDbLine
  8
1
 62
256
370
-1
  6
ByLayer
 10
7.4204746402605286
 20
-19.7128903780502824
 30
0.0
 11
7.5359446940984478
 21
-19.9128903780502888
 31
0.0
  0
LINE
  5
1B2
100
AcDbEntity
100
AcDbLine
  8
1
 62
256
370
-1
  6
ByLayer
 10
6.4967142095571191
 20
-19.3128903780502874
 30
0.0
 11
6.1503040480433517
 21
-19.9128903780502817
 31
0.0
  0
LINE
  5
1B3
100
AcDbEntity
100
AcDbLine
  8
1
 62
256
370
-1
  6
ByLayer
 10
6.7276543172329824
 20
-19.3128903780502839
 30
0.0
 11
6.4967142095571191
 21
-19.3128903780502874
 31
0.0
  0
LINE
  5
1B4
100
AcDbEntity
100
AcDbLine
  8
1
 62
256
370
-1
  6
ByLayer
 10
8.7080390649549457
 20
-15.8827633764613605
 30
0.0
 11
6.7276543172329824
 21
-19.3128903780502839
 31
0.0
  0
LINE
  5
1B5
100
AcDbEntity
100
AcDbLine
  8
1
 62
256
370
-1
  6
ByLayer
 10
3.8601681295088754
 20
-16.6306541480460304
 30
0.0
 11
4.551877752643402
 21
-17.8287303593993514
 31
0.0
  0
LINE
  5
1B6
100
AcDbEntity
100
AcDbLine
  8
1
 62
256
370
-1
  6
ByLayer
 10
4.551877752643402
 20
-17.8287303593993514
 30
0.0
 11
4.7828178603192528
 21
-17.8287303593993514
 31
0.0
  0
LINE
  5
1B7
100
AcDbEntity
100
AcDbLine
  8
1
 62
256
370
-1
  6
ByLayer
 10
4.7828178603192528
 20
-17.8287303593993514
 30
0.0
 11
5.1292280218330308
 21
-18.4287303593993457
 31
0.0
  0
LINE
  5
1B8
100
AcDbEntity
100
AcDbLine
  8
1
 62
256
370
-1
  6
ByLayer
 10
3.8590574296158544
 20
-18.2287303593993428
 30
0.0
 11
3.7435873757779237
 21
-18.4287303593993457
 31
0.0
  0
LINE
  5
1B9
100
AcDbEntity
100
AcDbLine
  8
1
 62
256
370
-1
  6
ByLayer
 10
3.7435873757779237
 20
-18.4287303593993457
 30
0.0
 11
4.0899975372917066
 21
-19.0287303593993471
 31
0.0
  0
LINE
  5
1BA
100
AcDbEntity
100
AcDbLine
  8
1
 62
256
370
-1
  6
ByLayer
 10
3.3982879141571729
 20
-17.4306541480460311
 30
0.0
 11
3.8590574296158544
 21
-18.2287303593993428
 31
0.0
  0
LINE
  5
1BB
100
AcDbEntity
100
AcDbLine
  8
1
 62
256
370
-1
  6
ByLayer
 10
2.705467591129624
 20
-17.0306541480460325
 30
0.0
 11
1.7839285602122834
 21
-17.0306541480460325
 31
0.0
  0
LINE
  5
1BC
100
AcDbEntity
100
AcDbLine
  8
1
 62
256
370
-1
  6
ByLayer
 10
1.6684585063743518
 20
-17.2306541480460318
 30
0.0
 11
0.9756381833468046
 21
-17.2306541480460318
 31
0.0
  0
LINE
  5
1BD
100
AcDbEntity
100
AcDbLine
  8
1
 62
256
370
-1
  6
ByLayer
 10
1.7839285602122834
 20
-17.0306541480460325
 30
0.0
 11
1.6684585063743518
 21
-17.2306541480460318
 31
0.0
  0
LINE
  5
1BE
100
AcDbEntity
100
AcDbLine
  8
1
 62
256
370
-1
  6
ByLayer
 10
1.6684585063743491
 20
-16.0306541480460325
 30
0.0
 11
0.9756381833468055
 21
-16.030654148046029
 31
0.0
  0
LINE
  5
1BF
100
AcDbEntity
100
AcDbLine
  8
1
 62
256
370
-1
  6
ByLayer
 10
1.7839285602122812
 20
-16.2306541480460247
 30
0.0
 11
1.6684585063743491
 21
-16.0306541480460325
 31
0.0
  0
LINE
  5
1C0
100
AcDbEntity
100
AcDbLine
  8
1
 62
256
370
-1
  6
ByLayer
 10
3.1673478064813319
 20
-16.2306541480460282
 30
0.0
 11
1.7839285602122812
 21
-16.2306541480460247
 31
0.0
  0
LINE
  5
1C1
100
AcDbEntity
100
AcDbLine
  8
1
 62
256
370
-1
  6
ByLayer
 10
1.9824519794330886
 20
-10.2939605040610207
 30
0.0
 11
1.6360418179193088
 21
-10.8939605040610221
 31
0.0
  0
LINE
  5
1C2
100
AcDbEntity
100
AcDbLine
  8
1
 62
256
370
-1
  6
ByLayer
 10
1.8669819255951674
 20
-10.0939605040610214
 30
0.0
 11
1.9824519794330886
 21
-10.2939605040610207
 31
0.0
  0
LINE
  5
1C3
100
AcDbEntity
100
AcDbLine
  8
1
 62
256
370
-1
  6
ByLayer
 10
0.9432214948917622
 20
-9.6939605040610228
 30
0.0
 11
0.5968113333779858
 21
-10.2939605040610207
 31
0.0
  0
LINE
  5
1C4
100
AcDbEntity
100
AcDbLine
  8
1
 62
256
370
-1
  6
ByLayer
 10
1.1741616025676109
 20
-9.6939605040610246
 30
0.0
 11
0.9432214948917622
 21
-9.6939605040610228
 31
0.0
  0
LINE
  5
1C5
100
AcDbEntity
100
AcDbLine
  8
1
 62
256
370
-1
  6
ByLayer
 10
6.6207528002735785
 20
-12.2674781427395772
 30
0.0
 11
8.7080390649549457
 21
-15.8827633764613605
 31
0.0
  0
LINE
  5
1C6
100
AcDbEntity
100
AcDbLine
  8
1
 62
256
370
-1
  6
ByLayer
 10
3.8601681295088754
 20
-16.6306541480460304
 30
0.0
 11
6.6207528002735785
 21
-12.2674781427395772
 31
0.0
  0
LINE
  5
1C7
100
AcDbEntity
100
AcDbLine
  8
1
 62
256
370
-1
  6
ByLayer
 10
3.1673478064813319
 20
-16.2306541480460282
 30
0.0
 11
5.9178114019673078
 21
-11.0499481371673447
 31
0.0
  0
LINE
  5
1C8
100
AcDbEntity
100
AcDbLine
  8
1
 62
256
370
-1
  6
ByLayer
 10
3.7400567312796444
 20
-7.2779670549234288
 30
0.0
 11
1.8669819255951674
 21
-10.0939605040610214
 31
0.0
  0
LINE
  5
1C9
100
AcDbEntity
100
AcDbLine
  8
1
 62
256
370
-1
  6
ByLayer
 10
3.7400567312796444
 20
-7.2779670549234288
 30
0.0
 11
5.9178114019673078
 21
-11.0499481371673447
 31
0.0
  0
LINE
  5
1CA
100
AcDbEntity
100
AcDbLine
  8
1
 62
256
370
-1
  6
ByLayer
 10
1.1741616025676109
 20
-9.6939605040610246
 30
0.0
 11
3.028201870332361
 21
-6.0587533983097348
 31
0.0
  0
LINE
  5
1CB
100
AcDbEntity
100
AcDbLine
  8
1
 62
256
370
-1
  6
ByLayer
 10
8.6164266657148829
 20
-6.8638327345863894
 30
0.0
 11
8.962836737162359
 21
-6.2638326825866031
 31
0.0
  0
LINE
  5
1CC
100
AcDbEntity
100
AcDbLine
  8
1
 62
256
370
-1
  6
ByLayer
 10
8.6164264855822932
 20
-5.6638327345864043
 30
0.0
 11
8.962836737162359
 21
-6.2638326825866031
 31
0.0
  0
LINE
  5
1CD
100
AcDbEntity
100
AcDbLine
  8
1
 62
256
370
-1
  6
ByLayer
 10
14.1699193803802483
 20
-16.4827626085756584
 30
0.0
 11
14.5163294518277279
 21
-15.8827625565758712
 31
0.0
  0
LINE
  5
1CE
100
AcDbEntity
100
AcDbLine
  8
1
 62
256
370
-1
  6
ByLayer
 10
14.1699192002476639
 20
-15.2827626085756663
 30
0.0
 11
14.5163294518277279
 21
-15.8827625565758712
 31
0.0
  0
LINE
  5
1CF
100
AcDbEntity
100
AcDbLine
  8
1
 62
256
370
-1
  6
ByLayer
 10
13.3951366897865789
 20
-13.656404937659758
 30
0.0
 11
14.0879570128141172
 21
-13.6564048336601651
 31
0.0
  0
LINE
  5
1D0
100
AcDbEntity
100
AcDbLine
  8
1
 62
256
370
-1
  6
ByLayer
 10
14.4343670842616021
 20
-13.0564047816603708
 30
0.0
 11
14.0879570128141172
 21
-13.6564048336601651
 31
0.0
  0
LINE
  5
1D1
100
AcDbEntity
100
AcDbLine
  8
1
 62
256
370
-1
  6
ByLayer
 10
14.4343665444414118
 20
-9.4602523589537757
 30
0.0
 11
14.0879562928613495
 21
-8.8602524109535814
 31
0.0
  0
LINE
  5
1D2
100
AcDbEntity
100
AcDbLine
  8
1
 62
256
370
-1
  6
ByLayer
 10
13.3951359698338059
 20
-8.8602525149531761
 30
0.0
 11
14.0879562928613495
 21
-8.8602524109535814
 31
0.0
  0
LINE
  5
1D3
100
AcDbEntity
100
AcDbLine
  8
1
 62
256
370
-1
  6
ByLayer
 10
13.0252175022953409
 20
-21.3603347391673388
 30
0.0
 11
13.3716277388643512
 21
-21.9603347651672323
 31
0.0
  0
LINE
  5
1D4
100
AcDbEntity
100
AcDbLine
  8
1
 62
256
370
-1
  6
ByLayer
 10
12.7942774046268646
 20
-21.3603347738338627
 30
0.0
 11
13.0252175022953409
 21
-21.3603347391673388
 31
0.0
  0
LINE
  5
1D5
100
AcDbEntity
100
AcDbLine
  8
1
 62
256
370
-1
  6
ByLayer
 10
9.8627396133415637
 20
-16.2827632551285078
 30
0.0
 11
12.7942774046268646
 21
-21.3603347738338627
 31
0.0
  0
LINE
  5
1D6
100
AcDbEntity
100
AcDbLine
  8
1
 62
256
370
-1
  6
ByLayer
 10
9.8627396133415637
 20
-16.2827632551285078
 30
0.0
 11
13.3616289734926834
 21
-16.2827627299085158
 31
0.0
  0
LINE
  5
1D7
100
AcDbEntity
100
AcDbLine
  8
1
 62
256
370
-1
  6
ByLayer
 10
13.4770990573527154
 20
-16.4827627125752443
 30
0.0
 11
14.1699193803802483
 21
-16.4827626085756584
 31
0.0
  0
LINE
  5
1D8
100
AcDbEntity
100
AcDbLine
  8
1
 62
256
370
-1
  6
ByLayer
 10
13.3616289734926834
 20
-16.2827627299085158
 30
0.0
 11
13.4770990573527154
 21
-16.4827627125752443
 31
0.0
  0
LINE
  5
1D9
100
AcDbEntity
100
AcDbLine
  8
1
 62
256
370
-1
  6
ByLayer
 10
13.477098877220131
 20
-15.2827627125752556
 30
0.0
 11
14.1699192002476639
 21
-15.2827626085756663
 31
0.0
  0
LINE
  5
1DA
100
AcDbEntity
100
AcDbLine
  8
1
 62
256
370
-1
  6
ByLayer
 10
13.3616288534042944
 20
-15.4827627299085329
 30
0.0
 11
13.477098877220131
 21
-15.2827627125752556
 31
0.0
  0
LINE
  5
1DB
100
AcDbEntity
100
AcDbLine
  8
1
 62
256
370
-1
  6
ByLayer
 10
9.4008593579604032
 20
-15.4827633244615619
 30
0.0
 11
13.3616288534042944
 21
-15.4827627299085329
 31
0.0
  0
LINE
  5
1DC
100
AcDbEntity
100
AcDbLine
  8
1
 62
256
370
-1
  6
ByLayer
 10
12.4724866590440282
 20
-11.6583288648058581
 30
0.0
 11
13.1641964620223479
 21
-12.8564049723262972
 31
0.0
  0
LINE
  5
1DD
100
AcDbEntity
100
AcDbLine
  8
1
 62
256
370
-1
  6
ByLayer
 10
13.1641964620223479
 20
-12.8564049723262972
 30
0.0
 11
13.0487264382065185
 21
-13.0564049896595584
 31
0.0
  0
LINE
  5
1DE
100
AcDbEntity
100
AcDbLine
  8
1
 62
256
370
-1
  6
ByLayer
 10
13.0487264382065185
 20
-13.0564049896595584
 30
0.0
 11
13.3951366897865789
 21
-13.656404937659758
 31
0.0
  0
LINE
  5
1DF
100
AcDbEntity
100
AcDbLine
  8
1
 62
256
370
-1
  6
ByLayer
 10
13.857016725005689
 20
-12.4564048683267057
 30
0.0
 11
14.0879568326815452
 21
-12.4564048336601729
 31
0.0
  0
LINE
  5
1E0
100
AcDbEntity
100
AcDbLine
  8
1
 62
256
370
-1
  6
ByLayer
 10
14.0879568326815452
 20
-12.4564048336601729
 30
0.0
 11
14.4343670842616021
 21
-13.0564047816603708
 31
0.0
  0
LINE
  5
1E1
100
AcDbEntity
100
AcDbLine
  8
1
 62
256
370
-1
  6
ByLayer
 10
13.3962470897474173
 20
-11.658328726139727
 30
0.0
 11
13.857016725005689
 21
-12.4564048683267057
 31
0.0
  0
LINE
  5
1E2
100
AcDbEntity
100
AcDbLine
  8
1
 62
256
370
-1
  6
ByLayer
 10
13.3962469696590283
 20
-10.858328726139737
 30
0.0
 11
13.8570163653180884
 21
-10.0602524456201028
 31
0.0
  0
LINE
  5
1E3
100
AcDbEntity
100
AcDbLine
  8
1
 62
256
370
-1
  6
ByLayer
 10
14.0879564729939357
 20
-10.0602524109535629
 30
0.0
 11
14.4343665444414118
 21
-9.4602523589537757
 31
0.0
  0
LINE
  5
1E4
100
AcDbEntity
100
AcDbLine
  8
1
 62
256
370
-1
  6
ByLayer
 10
13.8570163653180884
 20
-10.0602524456201028
 30
0.0
 11
14.0879564729939357
 21
-10.0602524109535629
 31
0.0
  0
LINE
  5
1E5
100
AcDbEntity
100
AcDbLine
  8
1
 62
256
370
-1
  6
ByLayer
 10
13.0487258983863192
 20
-9.4602525669529722
 30
0.0
 11
13.3951359698338059
 21
-8.8602525149531761
 31
0.0
  0
LINE
  5
1E6
100
AcDbEntity
100
AcDbLine
  8
1
 62
256
370
-1
  6
ByLayer
 10
13.1641959822463459
 20
-9.6602525496196971
 30
0.0
 11
13.0487258983863192
 21
-9.4602525669529722
 31
0.0
  0
LINE
  5
1E7
100
AcDbEntity
100
AcDbLine
  8
1
 62
256
370
-1
  6
ByLayer
 10
12.4724865389556321
 20
-10.8583288648058733
 30
0.0
 11
13.1641959822463459
 21
-9.6602525496196971
 31
0.0
  0
LINE
  5
1E8
100
AcDbEntity
100
AcDbLine
  8
1
 62
256
370
-1
  6
ByLayer
 10
7.9236063426873278
 20
-6.8638328385859939
 30
0.0
 11
8.6164266657148829
 21
-6.8638327345863894
 31
0.0
  0
LINE
  5
1E9
100
AcDbEntity
100
AcDbLine
  8
1
 62
256
370
-1
  6
ByLayer
 10
7.8081362588273144
 20
-6.6638328559192601
 30
0.0
 11
7.9236063426873278
 21
-6.8638328385859939
 31
0.0
  0
LINE
  5
1EA
100
AcDbEntity
100
AcDbLine
  8
1
 62
256
370
-1
  6
ByLayer
 10
7.9236061625547576
 20
-5.6638328385860035
 30
0.0
 11
8.6164264855822932
 21
-5.6638327345864043
 31
0.0
  0
LINE
  5
1EB
100
AcDbEntity
100
AcDbLine
  8
1
 62
256
370
-1
  6
ByLayer
 10
7.8081361387389299
 20
-5.8638328559192656
 30
0.0
 11
7.9236061625547576
 21
-5.6638328385860035
 31
0.0
  0
LINE
  5
1EC
100
AcDbEntity
100
AcDbLine
  8
1
 62
256
370
-1
  6
ByLayer
 10
7.3135730932790137
 20
-11.8674780907397874
 30
0.0
 11
9.4008593579604032
 21
-15.4827633244615619
 31
0.0
  0
LINE
  5
1ED
100
AcDbEntity
100
AcDbLine
  8
1
 62
256
370
-1
  6
ByLayer
 10
12.4724866590440282
 20
-11.6583288648058581
 30
0.0
 11
7.3135730932790137
 21
-11.8674780907397874
 31
0.0
  0
LINE
  5
1EE
100
AcDbEntity
100
AcDbLine
  8
1
 62
256
370
-1
  6
ByLayer
 10
12.4724865389556321
 20
-10.8583288648058733
 30
0.0
 11
6.610631694972759
 21
-10.6499480851675496
 31
0.0
  0
LINE
  5
1EF
100
AcDbEntity
100
AcDbLine
  8
1
 62
256
370
-1
  6
ByLayer
 10
4.4328770242851032
 20
-6.8779670029236319
 30
0.0
 11
7.8081362588273144
 21
-6.6638328559192601
 31
0.0
  0
LINE
  5
1F0
100
AcDbEntity
100
AcDbLine
  8
1
 62
256
370
-1
  6
ByLayer
 10
4.4328770242851032
 20
-6.8779670029236319
 30
0.0
 11
6.610631694972759
 21
-10.6499480851675496
 31
0.0
  0
LINE
  5
1F1
100
AcDbEntity
100
AcDbLine
  8
1
 62
256
370
-1
  6
ByLayer
 10
7.8081361387389299
 20
-5.8638328559192656
 30
0.0
 11
3.7329342714412252
 21
-5.6518758862977272
 31
0.0
  0
LINE
  5
1F2
100
AcDbEntity
100
AcDbLine
  8
1
 62
256
370
-1
  6
ByLayer
 10
13.3716277388643512
 20
-21.9603347651672323
 30
0.0
 11
13.0252176223837317
 21
-22.5603347911671257
 31
0.0
  0
LINE
  5
1F3
100
AcDbEntity
100
AcDbLine
  8
1
 62
256
370
-1
  6
ByLayer
 10
12.3323972993561881
 20
-22.5603348431669204
 30
0.0
 11
13.0252176223837317
 21
-22.5603347911671257
 31
0.0
  0
LINE
  5
1F4
100
AcDbEntity
100
AcDbLine
  8
1
 62
256
370
-1
  6
ByLayer
 10
1.6144065542340964
 20
-20.920427298107878
 30
0.0
 11
0.921586231206538
 21
-20.920427298107878
 31
0.0
  0
LINE
  5
1F5
100
AcDbEntity
100
AcDbLine
  8
1
 62
256
370
-1
  6
ByLayer
 10
0.5751760696927528
 20
-20.3204272981078766
 30
0.0
 11
0.921586231206538
 21
-20.920427298107878
 31
0.0
  0
LINE
  5
1F6
100
AcDbEntity
100
AcDbLine
  8
1
 62
256
370
-1
  6
ByLayer
 10
1.9608167157478662
 20
-20.3204272981078766
 30
0.0
 11
1.6144065542340964
 21
-20.920427298107878
 31
0.0
  0
LINE
  5
1F7
100
AcDbEntity
100
AcDbLine
  8
1
 62
256
370
-1
  6
ByLayer
 10
0.9215862312065323
 20
-19.7204272981078788
 30
0.0
 11
0.5751760696927528
 21
-20.3204272981078766
 31
0.0
  0
LINE
  5
1F8
100
AcDbEntity
100
AcDbLine
  8
1
 62
256
370
-1
  6
ByLayer
 10
17.3104200011294189
 20
-11.8583281385813226
 30
0.0
 11
17.6568300725769021
 21
-11.258328086581546
 31
0.0
  0
LINE
  5
1F9
100
AcDbEntity
100
AcDbLine
  8
1
 62
256
370
-1
  6
ByLayer
 10
17.3104198209968381
 20
-10.6583281385813571
 30
0.0
 11
17.6568300725769021
 21
-11.258328086581546
 31
0.0
  0
LINE
  5
1FA
100
AcDbEntity
100
AcDbLine
  8
1
 62
256
370
-1
  6
ByLayer
 10
16.6175996781018789
 20
-11.8583282425809351
 30
0.0
 11
17.3104200011294189
 21
-11.8583281385813226
 31
0.0
  0
LINE
  5
1FB
100
AcDbEntity
100
AcDbLine
  8
1
 62
256
370
-1
  6
ByLayer
 10
16.617599497969298
 20
-10.6583282425809376
 30
0.0
 11
17.3104198209968381
 21
-10.6583281385813571
 31
0.0
  0
LINE
  5
1FC
100
AcDbEntity
100
AcDbLine
  8
1
 62
256
370
-1
  6
ByLayer
 10
13.3962470897474173
 20
-11.658328726139727
 30
0.0
 11
16.5021295942418611
 21
-11.6583282599141995
 31
0.0
  0
LINE
  5
1FD
100
AcDbEntity
100
AcDbLine
  8
1
 62
256
370
-1
  6
ByLayer
 10
16.5021295942418611
 20
-11.6583282599141995
 30
0.0
 11
16.6175996781018789
 21
-11.8583282425809351
 31
0.0
  0
LINE
  5
1FE
100
AcDbEntity
100
AcDbLine
  8
1
 62
256
370
-1
  6
ByLayer
 10
13.3962469696590283
 20
-10.858328726139737
 30
0.0
 11
16.5021294741534703
 21
-10.8583282599142095
 31
0.0
  0
LINE
  5
1FF
100
AcDbEntity
100
AcDbLine
  8
1
 62
256
370
-1
  6
ByLayer
 10
16.5021294741534703
 20
-10.8583282599142095
 30
0.0
 11
16.617599497969298
 21
-10.6583282425809376
 31
0.0
  0
LINE
  5
200
100
AcDbEntity
100
AcDbLine
  8
1
 62
256
370
-1
  6
ByLayer
 10
3.3982879141571729
 20
-17.4306541480460311
 30
0.0
 11
1.8453466619099379
 21
-20.1204272981078773
 31
0.0
  0
LINE
  5
201
100
AcDbEntity
100
AcDbLine
  8
1
 62
256
370
-1
  6
ByLayer
 10
1.8453466619099379
 20
-20.1204272981078773
 30
0.0
 11
1.9608167157478662
 21
-20.3204272981078766
 31
0.0
  0
LINE
  5
202
100
AcDbEntity
100
AcDbLine
  8
1
 62
256
370
-1
  6
ByLayer
 10
2.705467591129624
 20
-17.0306541480460325
 30
0.0
 11
1.1525263388823879
 21
-19.7204272981078752
 31
0.0
  0
LINE
  5
203
100
AcDbEntity
100
AcDbLine
  8
1
 62
256
370
-1
  6
ByLayer
 10
1.1525263388823879
 20
-19.7204272981078752
 30
0.0
 11
0.9215862312065323
 21
-19.7204272981078788
 31
0.0
  0
LINE
  5
204
100
AcDbEntity
100
AcDbLine
  8
1
 62
256
370
-1
  6
ByLayer
 10
10.2524674533008273
 20
-4.0301264760587179
 30
0.0
 11
9.9060572917870555
 21
-4.6301264760587122
 31
0.0
  0
LINE
  5
205
100
AcDbEntity
100
AcDbLine
  8
1
 62
256
370
-1
  6
ByLayer
 10
9.2132369687594995
 20
-4.6301264760587131
 30
0.0
 11
9.9060572917870555
 21
-4.6301264760587122
 31
0.0
  0
LINE
  5
206
100
AcDbEntity
100
AcDbLine
  8
1
 62
256
370
-1
  6
ByLayer
 10
21.3594514387292662
 20
-4.0301256424213339
 30
0.0
 11
21.0130412772154891
 21
-4.63012564242133
 31
0.0
  0
LINE
  5
207
100
AcDbEntity
100
AcDbLine
  8
1
 62
256
370
-1
  6
ByLayer
 10
20.3202209541879313
 20
-4.6301256424213371
 30
0.0
 11
21.0130412772154891
 21
-4.63012564242133
 31
0.0
  0
LINE
  5
208
100
AcDbEntity
100
AcDbLine
  8
1
 62
256
370
-1
  6
ByLayer
 10
18.5243626616498744
 20
-4.7723234109892703
 30
0.0
 11
18.8707728231636516
 21
-5.3723234109892823
 31
0.0
  0
LINE
  5
209
100
AcDbEntity
100
AcDbLine
  8
1
 62
256
370
-1
  6
ByLayer
 10
18.5243626616498744
 20
-5.9723234109892687
 30
0.0
 11
18.8707728231636516
 21
-5.3723234109892823
 31
0.0
  0
LINE
  5
20A
100
AcDbEntity
100
AcDbLine
  8
1
 62
256
370
-1
  6
ByLayer
 10
15.4100033077049776
 20
-7.7703996223425875
 30
0.0
 11
14.7171829846774251
 21
-7.7703996223425857
 31
0.0
  0
LINE
  5
20B
100
AcDbEntity
100
AcDbLine
  8
1
 62
256
370
-1
  6
ByLayer
 10
14.3707728231636498
 20
-7.1703996223425861
 30
0.0
 11
14.7171829846774251
 21
-7.7703996223425857
 31
0.0
  0
LINE
  5
20C
100
AcDbEntity
100
AcDbLine
  8
1
 62
256
370
-1
  6
ByLayer
 10
25.0112013586721247
 20
-0.5999981227782131
 30
0.0
 11
25.7040217417438654
 21
-0.5999980707784269
 31
0.0
  0
LINE
  5
20D
100
AcDbEntity
100
AcDbLine
  8
1
 62
256
370
-1
  6
ByLayer
 10
24.8957313098378847
 20
-0.3999981314448317
 30
0.0
 11
25.0112013586721247
 21
-0.5999981227782131
 31
0.0
  0
LINE
  5
20E
100
AcDbEntity
100
AcDbLine
  8
1
 62
256
370
-1
  6
ByLayer
 10
19.0326564894640633
 20
-0.3999985714993476
 30
0.0
 11
24.8957313098378847
 21
-0.3999981314448317
 31
0.0
  0
LINE
  5
20F
100
AcDbEntity
100
AcDbLine
  8
1
 62
256
370
-1
  6
ByLayer
 10
19.0326564894640633
 20
-0.3999985714993476
 30
0.0
 11
20.7821011695396365
 21
-3.4301256424213369
 31
0.0
  0
LINE
  5
210
100
AcDbEntity
100
AcDbLine
  8
1
 62
256
370
-1
  6
ByLayer
 10
21.0130412772154926
 20
-3.4301256424213271
 30
0.0
 11
21.3594514387292662
 21
-4.0301256424213339
 31
0.0
  0
LINE
  5
211
100
AcDbEntity
100
AcDbLine
  8
1
 62
256
370
-1
  6
ByLayer
 10
20.7821011695396365
 20
-3.4301256424213369
 30
0.0
 11
21.0130412772154926
 21
-3.4301256424213271
 31
0.0
  0
LINE
  5
212
100
AcDbEntity
100
AcDbLine
  8
1
 62
256
370
-1
  6
ByLayer
 10
19.9738107926741613
 20
-4.0301256424213285
 30
0.0
 11
20.3202209541879313
 21
-4.6301256424213371
 31
0.0
  0
LINE
  5
213
100
AcDbEntity
100
AcDbLine
  8
1
 62
256
370
-1
  6
ByLayer
 10
20.0892808465120858
 20
-3.8301256424213328
 30
0.0
 11
19.9738107926741613
 21
-4.0301256424213285
 31
0.0
  0
LINE
  5
214
100
AcDbEntity
100
AcDbLine
  8
1
 62
256
370
-1
  6
ByLayer
 10
18.1088960987901189
 20
-0.399998640832413
 30
0.0
 11
20.0892808465120858
 21
-3.8301256424213328
 31
0.0
  0
LINE
  5
215
100
AcDbEntity
100
AcDbLine
  8
1
 62
256
370
-1
  6
ByLayer
 10
16.3326530385153497
 20
-4.9723234109892767
 30
0.0
 11
17.7160722847844028
 21
-4.9723234109892749
 31
0.0
  0
LINE
  5
216
100
AcDbEntity
100
AcDbLine
  8
1
 62
256
370
-1
  6
ByLayer
 10
17.7160722847844028
 20
-4.9723234109892749
 30
0.0
 11
17.8315423386223273
 21
-4.7723234109892756
 31
0.0
  0
LINE
  5
217
100
AcDbEntity
100
AcDbLine
  8
1
 62
256
370
-1
  6
ByLayer
 10
17.8315423386223273
 20
-4.7723234109892756
 30
0.0
 11
18.5243626616498744
 21
-4.7723234109892703
 31
0.0
  0
LINE
  5
218
100
AcDbEntity
100
AcDbLine
  8
1
 62
256
370
-1
  6
ByLayer
 10
17.7160722847843992
 20
-5.7723234109892703
 30
0.0
 11
17.8315423386223237
 21
-5.9723234109892758
 31
0.0
  0
LINE
  5
219
100
AcDbEntity
100
AcDbLine
  8
1
 62
256
370
-1
  6
ByLayer
 10
17.8315423386223237
 20
-5.9723234109892758
 30
0.0
 11
18.5243626616498744
 21
-5.9723234109892687
 31
0.0
  0
LINE
  5
21A
100
AcDbEntity
100
AcDbLine
  8
1
 62
256
370
-1
  6
ByLayer
 10
16.7945332538670549
 20
-5.7723234109892632
 30
0.0
 11
17.7160722847843992
 21
-5.7723234109892703
 31
0.0
  0
LINE
  5
21B
100
AcDbEntity
100
AcDbLine
  8
1
 62
256
370
-1
  6
ByLayer
 10
16.1017129308395006
 20
-6.1723234109892768
 30
0.0
 11
15.6409434153808284
 21
-6.9703996223425859
 31
0.0
  0
LINE
  5
21C
100
AcDbEntity
100
AcDbLine
  8
1
 62
256
370
-1
  6
ByLayer
 10
15.7564134692187494
 20
-7.1703996223425914
 30
0.0
 11
15.4100033077049776
 21
-7.7703996223425875
 31
0.0
  0
LINE
  5
21D
100
AcDbEntity
100
AcDbLine
  8
1
 62
256
370
-1
  6
ByLayer
 10
15.6409434153808284
 20
-6.9703996223425859
 30
0.0
 11
15.7564134692187494
 21
-7.1703996223425914
 31
0.0
  0
LINE
  5
21E
100
AcDbEntity
100
AcDbLine
  8
1
 62
256
370
-1
  6
ByLayer
 10
14.7171829846774234
 20
-6.5703996223425936
 30
0.0
 11
14.3707728231636498
 21
-7.1703996223425861
 31
0.0
  0
LINE
  5
21F
100
AcDbEntity
100
AcDbLine
  8
1
 62
256
370
-1
  6
ByLayer
 10
14.9481230923532724
 20
-6.5703996223425856
 30
0.0
 11
14.7171829846774234
 21
-6.5703996223425936
 31
0.0
  0
LINE
  5
220
100
AcDbEntity
100
AcDbLine
  8
1
 62
256
370
-1
  6
ByLayer
 10
15.639832715487799
 20
-5.3723234109892672
 30
0.0
 11
14.9481230923532724
 21
-6.5703996223425856
 31
0.0
  0
LINE
  5
221
100
AcDbEntity
100
AcDbLine
  8
1
 62
256
370
-1
  6
ByLayer
 10
9.906057291787052
 20
-3.4301264760587133
 30
0.0
 11
10.2524674533008273
 21
-4.0301264760587179
 31
0.0
  0
LINE
  5
222
100
AcDbEntity
100
AcDbLine
  8
1
 62
256
370
-1
  6
ByLayer
 10
9.6751171841112011
 20
-3.4301264760587191
 30
0.0
 11
9.906057291787052
 21
-3.4301264760587133
 31
0.0
  0
LINE
  5
223
100
AcDbEntity
100
AcDbLine
  8
1
 62
256
370
-1
  6
ByLayer
 10
8.8668268072457259
 20
-4.0301264760587143
 30
0.0
 11
9.2132369687594995
 21
-4.6301264760587131
 31
0.0
  0
LINE
  5
224
100
AcDbEntity
100
AcDbLine
  8
1
 62
256
370
-1
  6
ByLayer
 10
8.9822968610836522
 20
-3.8301264760587164
 30
0.0
 11
8.8668268072457259
 21
-4.0301264760587143
 31
0.0
  0
LINE
  5
225
100
AcDbEntity
100
AcDbLine
  8
1
 62
256
370
-1
  6
ByLayer
 10
13.9343241121196062
 20
-0.399998954155927
 30
0.0
 11
18.1088960987901189
 21
-0.399998640832413
 31
0.0
  0
LINE
  5
226
100
AcDbEntity
100
AcDbLine
  8
1
 62
256
370
-1
  6
ByLayer
 10
16.3326530385153497
 20
-4.9723234109892767
 30
0.0
 11
13.9343241121196062
 21
-0.399998954155927
 31
0.0
  0
LINE
  5
227
100
AcDbEntity
100
AcDbLine
  8
1
 62
256
370
-1
  6
ByLayer
 10
15.639832715487799
 20
-5.3723234109892672
 30
0.0
 11
12.5284414982711088
 21
-0.3999990596747831
 31
0.0
  0
LINE
  5
228
100
AcDbEntity
100
AcDbLine
  8
1
 62
256
370
-1
  6
ByLayer
 10
8.1729327231097262
 20
-0.3999993865785484
 30
0.0
 11
9.6751171841112011
 21
-3.4301264760587191
 31
0.0
  0
LINE
  5
229
100
AcDbEntity
100
AcDbLine
  8
1
 62
256
370
-1
  6
ByLayer
 10
8.1729327231097262
 20
-0.3999993865785484
 30
0.0
 11
12.5284414982711088
 21
-0.3999990596747831
 31
0.0
  0
LINE
  5
22A
100
AcDbEntity
100
AcDbLine
  8
1
 62
256
370
-1
  6
ByLayer
 10
8.9822968610836522
 20
-3.8301264760587164
 30
0.0
 11
6.7611352933677074
 21
-0.4068769516595007
 31
0.0
  0
LINE
  5
22B
100
AcDbEntity
100
AcDbLine
  8
1
 62
256
370
-1
  6
ByLayer
 10
10.2524668483364714
 20
4.0301280150615284
 30
0.0
 11
9.9060565967564074
 21
4.6301279630617271
 31
0.0
  0
LINE
  5
22C
100
AcDbEntity
100
AcDbLine
  8
1
 62
256
370
-1
  6
ByLayer
 10
9.2132362737288638
 20
4.6301278590621244
 30
0.0
 11
9.9060565967564074
 21
4.6301279630617271
 31
0.0
  0
LINE
  5
22D
100
AcDbEntity
100
AcDbLine
  8
1
 62
256
370
-1
  6
ByLayer
 10
21.3594508337649067
 20
4.0301288486989097
 30
0.0
 11
21.0130405821848463
 21
4.6301287966991032
 31
0.0
  0
LINE
  5
22E
100
AcDbEntity
100
AcDbLine
  8
1
 62
256
370
-1
  6
ByLayer
 10
20.3202202591572956
 20
4.6301286926995138
 30
0.0
 11
21.0130405821848463
 21
4.6301287966991032
 31
0.0
  0
LINE
  5
22F
100
AcDbEntity
100
AcDbLine
  8
1
 62
256
370
-1
  6
ByLayer
 10
18.5243619452738848
 20
4.7723261916902864
 30
0.0
 11
18.8707720167213573
 21
5.3723262436900878
 31
0.0
  0
LINE
  5
230
100
AcDbEntity
100
AcDbLine
  8
1
 62
256
370
-1
  6
ByLayer
 10
18.5243617651413004
 20
5.9723261916902715
 30
0.0
 11
18.8707720167213573
 21
5.3723262436900878
 31
0.0
  0
LINE
  5
231
100
AcDbEntity
100
AcDbLine
  8
1
 62
256
370
-1
  6
ByLayer
 10
15.4100021412863413
 20
7.770401935545574
 30
0.0
 11
14.7171818182587977
 21
7.7704018315459775
 31
0.0
  0
LINE
  5
232
100
AcDbEntity
100
AcDbLine
  8
1
 62
256
370
-1
  6
ByLayer
 10
14.3707717468113181
 20
7.1704017795461867
 30
0.0
 11
14.7171818182587977
 21
7.7704018315459775
 31
0.0
  0
LINE
  5
233
100
AcDbEntity
100
AcDbLine
  8
1
 62
256
370
-1
  6
ByLayer
 10
25.0112012686058378
 20
0.600001877221781
 30
0.0
 11
25.704021651677575
 21
0.6000019292215987
 31
0.0
  0
LINE
  5
234
100
AcDbEntity
100
AcDbLine
  8
1
 62
256
370
-1
  6
ByLayer
 10
24.8957312497936911
 20
0.4000018685551368
 30
0.0
 11
25.0112012686058378
 21
0.600001877221781
 31
0.0
  0
LINE
  5
235
100
AcDbEntity
100
AcDbLine
  8
1
 62
256
370
-1
  6
ByLayer
 10
19.0326564294198661
 20
0.4000014285006628
 30
0.0
 11
24.8957312497936911
 21
0.4000018685551368
 31
0.0
  0
LINE
  5
236
100
AcDbEntity
100
AcDbLine
  8
1
 62
256
370
-1
  6
ByLayer
 10
19.0326564294198661
 20
0.4000014285006628
 30
0.0
 11
20.7821006546415745
 21
3.4301287620325911
 31
0.0
  0
LINE
  5
237
100
AcDbEntity
100
AcDbLine
  8
1
 62
256
370
-1
  6
ByLayer
 10
21.0130407623174271
 20
3.4301287966991132
 30
0.0
 11
21.3594508337649067
 21
4.0301288486989097
 31
0.0
  0
LINE
  5
238
100
AcDbEntity
100
AcDbLine
  8
1
 62
256
370
-1
  6
ByLayer
 10
20.7821006546415745
 20
3.4301287620325911
 30
0.0
 11
21.0130407623174271
 21
3.4301287966991132
 31
0.0
  0
LINE
  5
239
100
AcDbEntity
100
AcDbLine
  8
1
 62
256
370
-1
  6
ByLayer
 10
19.9738101877098195
 20
4.030128640699715
 30
0.0
 11
20.3202202591572956
 21
4.6301286926995138
 31
0.0
  0
LINE
  5
23A
100
AcDbEntity
100
AcDbLine
  8
1
 62
256
370
-1
  6
ByLayer
 10
20.0892802715698444
 20
3.8301286580329879
 30
0.0
 11
19.9738101877098195
 21
4.030128640699715
 31
0.0
  0
LINE
  5
23B
100
AcDbEntity
100
AcDbLine
  8
1
 62
256
370
-1
  6
ByLayer
 10
18.1088960387459217
 20
0.4000013591675746
 30
0.0
 11
20.0892802715698444
 21
3.8301286580329879
 31
0.0
  0
LINE
  5
23C
100
AcDbEntity
100
AcDbLine
  8
1
 62
256
370
-1
  6
ByLayer
 10
16.3326522921172845
 20
4.9723258626916946
 30
0.0
 11
17.7160715383863199
 21
4.9723260703574272
 31
0.0
  0
LINE
  5
23D
100
AcDbEntity
100
AcDbLine
  8
1
 62
256
370
-1
  6
ByLayer
 10
17.7160715383863199
 20
4.9723260703574272
 30
0.0
 11
17.8315416222463412
 21
4.7723260876906792
 31
0.0
  0
LINE
  5
23E
100
AcDbEntity
100
AcDbLine
  8
1
 62
256
370
-1
  6
ByLayer
 10
17.8315416222463412
 20
4.7723260876906792
 30
0.0
 11
18.5243619452738848
 21
4.7723261916902864
 31
0.0
  0
LINE
  5
23F
100
AcDbEntity
100
AcDbLine
  8
1
 62
256
370
-1
  6
ByLayer
 10
17.7160714182979291
 20
5.7723260703574137
 30
0.0
 11
17.8315414421137604
 21
5.9723260876906847
 31
0.0
  0
LINE
  5
240
100
AcDbEntity
100
AcDbLine
  8
1
 62
256
370
-1
  6
ByLayer
 10
17.8315414421137604
 20
5.9723260876906847
 30
0.0
 11
18.5243617651413004
 21
5.9723261916902715
 31
0.0
  0
LINE
  5
241
100
AcDbEntity
100
AcDbLine
  8
1
 62
256
370
-1
  6
ByLayer
 10
16.7945323873805918
 20
5.7723259320247342
 30
0.0
 11
17.7160714182979291
 21
5.7723260703574137
 31
0.0
  0
LINE
  5
242
100
AcDbEntity
100
AcDbLine
  8
1
 62
256
370
-1
  6
ByLayer
 10
16.1017120043088582
 20
6.1723258280251336
 30
0.0
 11
15.6409423690505829
 21
6.9704019702121149
 31
0.0
  0
LINE
  5
243
100
AcDbEntity
100
AcDbLine
  8
1
 62
256
370
-1
  6
ByLayer
 10
15.7564123928664088
 20
7.1704019875453682
 30
0.0
 11
15.4100021412863413
 21
7.770401935545574
 31
0.0
  0
LINE
  5
244
100
AcDbEntity
100
AcDbLine
  8
1
 62
256
370
-1
  6
ByLayer
 10
15.6409423690505829
 20
6.9704019702121149
 30
0.0
 11
15.7564123928664088
 21
7.1704019875453682
 31
0.0
  0
LINE
  5
245
100
AcDbEntity
100
AcDbLine
  8
1
 62
256
370
-1
  6
ByLayer
 10
14.717181998391375
 20
6.5704018315459969
 30
0.0
 11
14.3707717468113181
 21
7.1704017795461867
 31
0.0
  0
LINE
  5
246
100
AcDbEntity
100
AcDbLine
  8
1
 62
256
370
-1
  6
ByLayer
 10
14.948122106067224
 20
6.5704018662125216
 30
0.0
 11
14.717181998391375
 21
6.5704018315459969
 31
0.0
  0
LINE
  5
247
100
AcDbEntity
100
AcDbLine
  8
1
 62
256
370
-1
  6
ByLayer
 10
15.6398319090455491
 20
5.3723257586920869
 30
0.0
 11
14.948122106067224
 21
6.5704018662125216
 31
0.0
  0
LINE
  5
248
100
AcDbEntity
100
AcDbLine
  8
1
 62
256
370
-1
  6
ByLayer
 10
9.9060567768889864
 20
3.4301279630617412
 30
0.0
 11
10.2524668483364714
 21
4.0301280150615284
 31
0.0
  0
LINE
  5
249
100
AcDbEntity
100
AcDbLine
  8
1
 62
256
370
-1
  6
ByLayer
 10
9.6751166692131445
 20
3.4301279283952071
 30
0.0
 11
9.9060567768889864
 21
3.4301279630617412
 31
0.0
  0
LINE
  5
24A
100
AcDbEntity
100
AcDbLine
  8
1
 62
256
370
-1
  6
ByLayer
 10
8.8668262022813877
 20
4.0301278070623443
 30
0.0
 11
9.2132362737288638
 21
4.6301278590621244
 31
0.0
  0
LINE
  5
24B
100
AcDbEntity
100
AcDbLine
  8
1
 62
256
370
-1
  6
ByLayer
 10
8.9822962861414055
 20
3.8301278243956136
 30
0.0
 11
8.8668262022813877
 21
4.0301278070623443
 31
0.0
  0
LINE
  5
24C
100
AcDbEntity
100
AcDbLine
  8
1
 62
256
370
-1
  6
ByLayer
 10
13.9343240520754108
 20
0.4000010458440776
 30
0.0
 11
18.1088960387459217
 21
0.4000013591675746
 31
0.0
  0
LINE
  5
24D
100
AcDbEntity
100
AcDbLine
  8
1
 62
256
370
-1
  6
ByLayer
 10
16.3326522921172845
 20
4.9723258626916946
 30
0.0
 11
13.9343240520754108
 21
0.4000010458440776
 31
0.0
  0
LINE
  5
24E
100
AcDbEntity
100
AcDbLine
  8
1
 62
256
370
-1
  6
ByLayer
 10
15.6398319090455491
 20
5.3723257586920869
 30
0.0
 11
12.5284414382269169
 21
0.4000009403252234
 31
0.0
  0
LINE
  5
24F
100
AcDbEntity
100
AcDbLine
  8
1
 62
256
370
-1
  6
ByLayer
 10
8.1729326630655343
 20
0.4000006134214489
 30
0.0
 11
9.6751166692131445
 21
3.4301279283952071
 31
0.0
  0
LINE
  5
250
100
AcDbEntity
100
AcDbLine
  8
1
 62
256
370
-1
  6
ByLayer
 10
8.1729326630655343
 20
0.4000006134214489
 30
0.0
 11
12.5284414382269169
 21
0.4000009403252234
 31
0.0
  0
LINE
  5
251
100
AcDbEntity
100
AcDbLine
  8
1
 62
256
370
-1
  6
ByLayer
 10
8.9822962861414055
 20
3.8301278243956136
 30
0.0
 11
6.7611352322911342
 21
0.4068779665767903
 31
0.0
  0
LINE
  5
252
100
AcDbEntity
100
AcDbLine
  8
1
 62
256
370
-1
  6
ByLayer
 10
25.704021651677575
 20
0.6000019292215987
 30
0.0
 11
26.0504318582244991
 21
0.0000019552214846
 31
0.0
  0
LINE
  5
253
100
AcDbEntity
100
AcDbLine
  8
1
 62
256
370
-1
  6
ByLayer
 10
25.7040217417438654
 20
-0.5999980707784269
 30
0.0
 11
26.0504318582244991
 21
0.0000019552214846
 31
0.0
  0
LINE
  5
254
100
AcDbEntity
100
AcDbLine
  8
1
 62
256
370
-1
  6
ByLayer
 10
18.9248247753039145
 20
-9.0620965610511188
 30
0.0
 11
18.5784146137901338
 21
-9.6620965610511238
 31
0.0
  0
LINE
  5
255
100
AcDbEntity
100
AcDbLine
  8
1
 62
256
370
-1
  6
ByLayer
 10
17.8855942907625867
 20
-9.6620965610511167
 30
0.0
 11
18.5784146137901338
 21
-9.6620965610511238
 31
0.0
  0
LINE
  5
256
100
AcDbEntity
100
AcDbLine
  8
1
 62
256
370
-1
  6
ByLayer
 10
18.5784146137901338
 20
-8.462096561051121
 30
0.0
 11
18.9248247753039145
 21
-9.0620965610511188
 31
0.0
  0
LINE
  5
257
100
AcDbEntity
100
AcDbLine
  8
1
 62
256
370
-1
  6
ByLayer
 10
17.539184129248806
 20
-9.0620965610511295
 30
0.0
 11
17.8855942907625867
 21
-9.6620965610511167
 31
0.0
  0
LINE
  5
258
100
AcDbEntity
100
AcDbLine
  8
1
 62
256
370
-1
  6
ByLayer
 10
18.9248234149879835
 20
9.0620994018656447
 30
0.0
 11
18.578413163407923
 21
9.6620993498658514
 31
0.0
  0
LINE
  5
259
100
AcDbEntity
100
AcDbLine
  8
1
 62
256
370
-1
  6
ByLayer
 10
17.8855928403803865
 20
9.6620992458662496
 30
0.0
 11
18.578413163407923
 21
9.6620993498658514
 31
0.0
  0
LINE
  5
25A
100
AcDbEntity
100
AcDbLine
  8
1
 62
256
370
-1
  6
ByLayer
 10
18.578413343540511
 20
8.4620993498658645
 30
0.0
 11
18.9248234149879835
 21
9.0620994018656447
 31
0.0
  0
LINE
  5
25B
100
AcDbEntity
100
AcDbLine
  8
1
 62
256
370
-1
  6
ByLayer
 10
17.5391827689329034
 20
9.0620991938664535
 30
0.0
 11
17.8855928403803865
 21
9.6620992458662496
 31
0.0
  0
LINE
  5
25C
100
AcDbEntity
100
AcDbLine
  8
1
 62
256
370
-1
  6
ByLayer
 10
16.7945323873805918
 20
5.7723259320247342
 30
0.0
 11
18.3474732358646619
 21
8.4620993151993353
 31
0.0
  0
LINE
  5
25D
100
AcDbEntity
100
AcDbLine
  8
1
 62
256
370
-1
  6
ByLayer
 10
18.3474732358646619
 20
8.4620993151993353
 30
0.0
 11
18.578413343540511
 21
8.4620993498658645
 31
0.0
  0
LINE
  5
25E
100
AcDbEntity
100
AcDbLine
  8
1
 62
256
370
-1
  6
ByLayer
 10
16.1017120043088582
 20
6.1723258280251336
 30
0.0
 11
17.6546528527929247
 21
8.8620992111997356
 31
0.0
  0
LINE
  5
25F
100
AcDbEntity
100
AcDbLine
  8
1
 62
256
370
-1
  6
ByLayer
 10
17.6546528527929247
 20
8.8620992111997356
 30
0.0
 11
17.5391827689329034
 21
9.0620991938664535
 31
0.0
  0
LINE
  5
260
100
AcDbEntity
100
AcDbLine
  8
1
 62
256
370
-1
  6
ByLayer
 10
16.7945332538670549
 20
-5.7723234109892632
 30
0.0
 11
18.3474745061142812
 21
-8.4620965610511245
 31
0.0
  0
LINE
  5
261
100
AcDbEntity
100
AcDbLine
  8
1
 62
256
370
-1
  6
ByLayer
 10
18.3474745061142812
 20
-8.4620965610511245
 30
0.0
 11
18.5784146137901338
 21
-8.462096561051121
 31
0.0
  0
LINE
  5
262
100
AcDbEntity
100
AcDbLine
  8
1
 62
256
370
-1
  6
ByLayer
 10
16.1017129308395006
 20
-6.1723234109892768
 30
0.0
 11
17.6546541830867305
 21
-8.8620965610511249
 31
0.0
  0
LINE
  5
263
100
AcDbEntity
100
AcDbLine
  8
1
 62
256
370
-1
  6
ByLayer
 10
17.6546541830867305
 20
-8.8620965610511249
 30
0.0
 11
17.539184129248806
 21
-9.0620965610511295
 31
0.0
  0
LINE
  5
264
100
AcDbEntity
100
AcDbLine
  8
1
 62
256
370
-1
  6
ByLayer
 10
8.616425635381523
 20
6.8638340280023016
 30
0.0
 11
8.9628357968952965
 21
6.2638340280023073
 31
0.0
  0
LINE
  5
265
100
AcDbEntity
100
AcDbLine
  8
1
 62
256
370
-1
  6
ByLayer
 10
8.6164256353815194
 20
5.6638340280023032
 30
0.0
 11
8.9628357968952965
 21
6.2638340280023073
 31
0.0
  0
LINE
  5
266
100
AcDbEntity
100
AcDbLine
  8
1
 62
256
370
-1
  6
ByLayer
 10
14.1699169061445946
 20
16.4827647356289475
 30
0.0
 11
14.5163270676583647
 21
15.8827647356289496
 31
0.0
  0
LINE
  5
267
100
AcDbEntity
100
AcDbLine
  8
1
 62
256
370
-1
  6
ByLayer
 10
14.1699169061445929
 20
15.2827647356289411
 30
0.0
 11
14.5163270676583647
 21
15.8827647356289496
 31
0.0
  0
LINE
  5
268
100
AcDbEntity
100
AcDbLine
  8
1
 62
256
370
-1
  6
ByLayer
 10
13.3951346398168543
 20
13.6564069484100727
 30
0.0
 11
14.0879549628444032
 21
13.6564069484100781
 31
0.0
  0
LINE
  5
269
100
AcDbEntity
100
AcDbLine
  8
1
 62
256
370
-1
  6
ByLayer
 10
14.4343651243581803
 20
13.0564069484100731
 30
0.0
 11
14.0879549628444032
 21
13.6564069484100781
 31
0.0
  0
LINE
  5
26A
100
AcDbEntity
100
AcDbLine
  8
1
 62
256
370
-1
  6
ByLayer
 10
14.4343651243581803
 20
9.4602545257034372
 30
0.0
 11
14.0879549628444032
 21
8.8602545257034393
 31
0.0
  0
LINE
  5
26B
100
AcDbEntity
100
AcDbLine
  8
1
 62
256
370
-1
  6
ByLayer
 10
13.3951346398168525
 20
8.8602545257034393
 30
0.0
 11
14.0879549628444032
 21
8.8602545257034393
 31
0.0
  0
LINE
  5
26C
100
AcDbEntity
100
AcDbLine
  8
1
 62
256
370
-1
  6
ByLayer
 10
13.025214295884977
 20
21.3603366943888169
 30
0.0
 11
13.3716244423876915
 21
21.9603367723885157
 31
0.0
  0
LINE
  5
26D
100
AcDbEntity
100
AcDbLine
  8
1
 62
256
370
-1
  6
ByLayer
 10
12.7942741982164989
 20
21.3603366943888133
 30
0.0
 11
13.025214295884977
 21
21.3603366943888169
 31
0.0
  0
LINE
  5
26E
100
AcDbEntity
100
AcDbLine
  8
1
 62
256
370
-1
  6
ByLayer
 10
9.8627371691279588
 20
16.2827647356289553
 30
0.0
 11
12.7942741982164989
 21
21.3603366943888133
 31
0.0
  0
LINE
  5
26F
100
AcDbEntity
100
AcDbLine
  8
1
 62
256
370
-1
  6
ByLayer
 10
9.8627371691279588
 20
16.2827647356289553
 30
0.0
 11
13.3616265292791194
 21
16.2827647356289447
 31
0.0
  0
LINE
  5
270
100
AcDbEntity
100
AcDbLine
  8
1
 62
256
370
-1
  6
ByLayer
 10
13.4770965831170528
 20
16.4827647356289404
 30
0.0
 11
14.1699169061445946
 21
16.4827647356289475
 31
0.0
  0
LINE
  5
271
100
AcDbEntity
100
AcDbLine
  8
1
 62
256
370
-1
  6
ByLayer
 10
13.3616265292791194
 20
16.2827647356289447
 30
0.0
 11
13.4770965831170528
 21
16.4827647356289404
 31
0.0
  0
LINE
  5
272
100
AcDbEntity
100
AcDbLine
  8
1
 62
256
370
-1
  6
ByLayer
 10
13.4770965831170511
 20
15.2827647356289393
 30
0.0
 11
14.1699169061445929
 21
15.2827647356289411
 31
0.0
  0
LINE
  5
273
100
AcDbEntity
100
AcDbLine
  8
1
 62
256
370
-1
  6
ByLayer
 10
13.3616265292791159
 20
15.4827647356289475
 30
0.0
 11
13.4770965831170511
 21
15.2827647356289393
 31
0.0
  0
LINE
  5
274
100
AcDbEntity
100
AcDbLine
  8
1
 62
256
370
-1
  6
ByLayer
 10
9.4008570338351802
 20
15.4827647356289475
 30
0.0
 11
13.3616265292791159
 21
15.4827647356289475
 31
0.0
  0
LINE
  5
275
100
AcDbEntity
100
AcDbLine
  8
1
 62
256
370
-1
  6
ByLayer
 10
12.472484909006484
 20
11.658330737056751
 30
0.0
 11
13.1641945321410088
 21
12.856406948410072
 31
0.0
  0
LINE
  5
276
100
AcDbEntity
100
AcDbLine
  8
1
 62
256
370
-1
  6
ByLayer
 10
13.1641945321410088
 20
12.856406948410072
 30
0.0
 11
13.0487244783030842
 21
13.0564069484100713
 31
0.0
  0
LINE
  5
277
100
AcDbEntity
100
AcDbLine
  8
1
 62
256
370
-1
  6
ByLayer
 10
13.0487244783030842
 20
13.0564069484100713
 30
0.0
 11
13.3951346398168543
 21
13.6564069484100727
 31
0.0
  0
LINE
  5
278
100
AcDbEntity
100
AcDbLine
  8
1
 62
256
370
-1
  6
ByLayer
 10
13.8570148551685541
 20
12.4564069484100699
 30
0.0
 11
14.0879549628444085
 21
12.4564069484100663
 31
0.0
  0
LINE
  5
279
100
AcDbEntity
100
AcDbLine
  8
1
 62
256
370
-1
  6
ByLayer
 10
14.0879549628444085
 20
12.4564069484100663
 30
0.0
 11
14.4343651243581803
 21
13.0564069484100731
 31
0.0
  0
LINE
  5
27A
100
AcDbEntity
100
AcDbLine
  8
1
 62
256
370
-1
  6
ByLayer
 10
13.3962453397098855
 20
11.658330737056751
 30
0.0
 11
13.8570148551685541
 21
12.4564069484100699
 31
0.0
  0
LINE
  5
27B
100
AcDbEntity
100
AcDbLine
  8
1
 62
256
370
-1
  6
ByLayer
 10
13.3962453397098873
 20
10.8583307370567521
 30
0.0
 11
13.8570148551685559
 21
10.0602545257034421
 31
0.0
  0
LINE
  5
27C
100
AcDbEntity
100
AcDbLine
  8
1
 62
256
370
-1
  6
ByLayer
 10
14.0879549628444067
 20
10.060254525703435
 30
0.0
 11
14.4343651243581803
 21
9.4602545257034372
 31
0.0
  0
LINE
  5
27D
100
AcDbEntity
100
AcDbLine
  8
1
 62
256
370
-1
  6
ByLayer
 10
13.8570148551685559
 20
10.0602545257034421
 30
0.0
 11
14.0879549628444067
 21
10.060254525703435
 31
0.0
  0
LINE
  5
27E
100
AcDbEntity
100
AcDbLine
  8
1
 62
256
370
-1
  6
ByLayer
 10
13.0487244783030842
 20
9.4602545257034336
 30
0.0
 11
13.3951346398168525
 21
8.8602545257034393
 31
0.0
  0
LINE
  5
27F
100
AcDbEntity
100
AcDbLine
  8
1
 62
256
370
-1
  6
ByLayer
 10
13.1641945321409999
 20
9.6602545257034382
 30
0.0
 11
13.0487244783030842
 21
9.4602545257034336
 31
0.0
  0
LINE
  5
280
100
AcDbEntity
100
AcDbLine
  8
1
 62
256
370
-1
  6
ByLayer
 10
12.4724849090064769
 20
10.8583307370567574
 30
0.0
 11
13.1641945321409999
 21
9.6602545257034382
 31
0.0
  0
LINE
  5
281
100
AcDbEntity
100
AcDbLine
  8
1
 62
256
370
-1
  6
ByLayer
 10
7.9236053123539696
 20
6.8638340280023051
 30
0.0
 11
8.616425635381523
 21
6.8638340280023016
 31
0.0
  0
LINE
  5
282
100
AcDbEntity
100
AcDbLine
  8
1
 62
256
370
-1
  6
ByLayer
 10
7.8081352585160424
 20
6.6638340280023094
 30
0.0
 11
7.9236053123539696
 21
6.8638340280023051
 31
0.0
  0
LINE
  5
283
100
AcDbEntity
100
AcDbLine
  8
1
 62
256
370
-1
  6
ByLayer
 10
7.9236053123539696
 20
5.6638340280023058
 30
0.0
 11
8.6164256353815194
 21
5.6638340280023032
 31
0.0
  0
LINE
  5
284
100
AcDbEntity
100
AcDbLine
  8
1
 62
256
370
-1
  6
ByLayer
 10
7.8081352585160477
 20
5.8638340280023051
 30
0.0
 11
7.9236053123539696
 21
5.6638340280023058
 31
0.0
  0
LINE
  5
285
100
AcDbEntity
100
AcDbLine
  8
1
 62
256
370
-1
  6
ByLayer
 10
7.3135713118460357
 20
11.8674791885836619
 30
0.0
 11
9.4008570338351802
 21
15.4827647356289475
 31
0.0
  0
LINE
  5
286
100
AcDbEntity
100
AcDbLine
  8
1
 62
256
370
-1
  6
ByLayer
 10
12.472484909006484
 20
11.658330737056751
 30
0.0
 11
7.3135713118460357
 21
11.8674791885836619
 31
0.0
  0
LINE
  5
287
100
AcDbEntity
100
AcDbLine
  8
1
 62
256
370
-1
  6
ByLayer
 10
12.4724849090064769
 20
10.8583307370567574
 30
0.0
 11
6.6106300963038072
 21
10.6499490774925594
 31
0.0
  0
LINE
  5
288
100
AcDbEntity
100
AcDbLine
  8
1
 62
256
370
-1
  6
ByLayer
 10
4.4328759918300866
 20
6.8779676683448736
 30
0.0
 11
7.8081352585160424
 21
6.6638340280023094
 31
0.0
  0
LINE
  5
289
100
AcDbEntity
100
AcDbLine
  8
1
 62
256
370
-1
  6
ByLayer
 10
4.4328759918300866
 20
6.8779676683448736
 30
0.0
 11
6.6106300963038072
 21
10.6499490774925594
 31
0.0
  0
LINE
  5
28A
100
AcDbEntity
100
AcDbLine
  8
1
 62
256
370
-1
  6
ByLayer
 10
7.8081352585160477
 20
5.8638340280023051
 30
0.0
 11
3.7329334230353513
 21
5.65187644665024
 31
0.0
  0
LINE
  5
28B
100
AcDbEntity
100
AcDbLine
  8
1
 62
256
370
-1
  6
ByLayer
 10
1.6360401826215918
 20
10.8939607496479294
 30
0.0
 11
0.9432198595940551
 21
10.8939606456483329
 31
0.0
  0
LINE
  5
28C
100
AcDbEntity
100
AcDbLine
  8
1
 62
256
370
-1
  6
ByLayer
 10
0.5968097881465716
 20
10.2939605936485385
 30
0.0
 11
0.9432198595940551
 21
10.8939606456483329
 31
0.0
  0
LINE
  5
28D
100
AcDbEntity
100
AcDbLine
  8
1
 62
256
370
-1
  6
ByLayer
 10
7.1895314533846726
 20
20.51289145727457
 30
0.0
 11
6.4967111303571334
 21
20.512891353274977
 31
0.0
  0
LINE
  5
28E
100
AcDbEntity
100
AcDbLine
  8
1
 62
256
370
-1
  6
ByLayer
 10
6.1503010589096441
 20
19.9128913012751809
 30
0.0
 11
6.4967111303571334
 21
20.512891353274977
 31
0.0
  0
LINE
  5
28F
100
AcDbEntity
100
AcDbLine
  8
1
 62
256
370
-1
  6
ByLayer
 10
5.1292252554873157
 20
18.4287311293500444
 30
0.0
 11
4.7828150039072579
 21
19.0287310773502405
 31
0.0
  0
LINE
  5
290
100
AcDbEntity
100
AcDbLine
  8
1
 62
256
370
-1
  6
ByLayer
 10
4.0899946808797107
 20
19.0287309733506476
 30
0.0
 11
4.7828150039072579
 21
19.0287310773502405
 31
0.0
  0
LINE
  5
291
100
AcDbEntity
100
AcDbLine
  8
1
 62
256
370
-1
  6
ByLayer
 10
0.9756355968449367
 20
17.2306542944993524
 30
0.0
 11
0.6292255253974584
 21
16.6306542424995634
 31
0.0
  0
LINE
  5
292
100
AcDbEntity
100
AcDbLine
  8
1
 62
256
370
-1
  6
ByLayer
 10
0.97563577697752
 20
16.0306542944993673
 30
0.0
 11
0.6292255253974584
 21
16.6306542424995634
 31
0.0
  0
LINE
  5
293
100
AcDbEntity
100
AcDbLine
  8
1
 62
256
370
-1
  6
ByLayer
 10
11.9859837663105111
 20
21.9603366163891245
 30
0.0
 11
12.332393912813238
 21
22.5603366943888091
 31
0.0
  0
LINE
  5
294
100
AcDbEntity
100
AcDbLine
  8
1
 62
256
370
-1
  6
ByLayer
 10
12.1014538451668408
 20
21.7603366423890243
 30
0.0
 11
11.9859837663105111
 21
21.9603366163891245
 31
0.0
  0
LINE
  5
295
100
AcDbEntity
100
AcDbLine
  8
1
 62
256
370
-1
  6
ByLayer
 10
9.1699168160783149
 20
16.6827646836291521
 30
0.0
 11
12.1014538451668408
 21
21.7603366423890243
 31
0.0
  0
LINE
  5
296
100
AcDbEntity
100
AcDbLine
  8
1
 62
256
370
-1
  6
ByLayer
 10
9.1699168160783149
 20
16.6827646836291521
 30
0.0
 11
7.4204716811489035
 21
19.7128914919411109
 31
0.0
  0
LINE
  5
297
100
AcDbEntity
100
AcDbLine
  8
1
 62
256
370
-1
  6
ByLayer
 10
7.5359417049647233
 20
19.912891509274381
 30
0.0
 11
7.1895314533846726
 21
20.51289145727457
 31
0.0
  0
LINE
  5
298
100
AcDbEntity
100
AcDbLine
  8
1
 62
256
370
-1
  6
ByLayer
 10
7.4204716811489035
 20
19.7128914919411109
 30
0.0
 11
7.5359417049647233
 21
19.912891509274381
 31
0.0
  0
LINE
  5
299
100
AcDbEntity
100
AcDbLine
  8
1
 62
256
370
-1
  6
ByLayer
 10
6.4967113104896974
 20
19.312891353274992
 30
0.0
 11
6.1503010589096441
 21
19.9128913012751809
 31
0.0
  0
LINE
  5
29A
100
AcDbEntity
100
AcDbLine
  8
1
 62
256
370
-1
  6
ByLayer
 10
6.7276514181655598
 20
19.3128913879415229
 30
0.0
 11
6.4967113104896974
 21
19.312891353274992
 31
0.0
  0
LINE
  5
29B
100
AcDbEntity
100
AcDbLine
  8
1
 62
256
370
-1
  6
ByLayer
 10
8.7080366807855309
 20
15.8827646836291532
 30
0.0
 11
6.7276514181655598
 21
19.3128913879415229
 31
0.0
  0
LINE
  5
29C
100
AcDbEntity
100
AcDbLine
  8
1
 62
256
370
-1
  6
ByLayer
 10
3.8601656330732661
 20
16.6306547274975536
 30
0.0
 11
4.5518750763639844
 21
17.828731042683728
 31
0.0
  0
LINE
  5
29D
100
AcDbEntity
100
AcDbLine
  8
1
 62
256
370
-1
  6
ByLayer
 10
4.5518750763639844
 20
17.828731042683728
 30
0.0
 11
4.7828151840398316
 21
17.8287310773502554
 31
0.0
  0
LINE
  5
29E
100
AcDbEntity
100
AcDbLine
  8
1
 62
256
370
-1
  6
ByLayer
 10
4.7828151840398316
 20
17.8287310773502554
 30
0.0
 11
5.1292252554873157
 21
18.4287311293500444
 31
0.0
  0
LINE
  5
29F
100
AcDbEntity
100
AcDbLine
  8
1
 62
256
370
-1
  6
ByLayer
 10
3.8590546932922498
 20
18.228730938684123
 30
0.0
 11
3.7435846094322236
 21
18.4287309213508621
 31
0.0
  0
LINE
  5
2A0
100
AcDbEntity
100
AcDbLine
  8
1
 62
256
370
-1
  6
ByLayer
 10
3.7435846094322236
 20
18.4287309213508621
 30
0.0
 11
4.0899946808797107
 21
19.0287309733506476
 31
0.0
  0
LINE
  5
2A1
100
AcDbEntity
100
AcDbLine
  8
1
 62
256
370
-1
  6
ByLayer
 10
3.3982852976331799
 20
17.4306546581644781
 30
0.0
 11
3.8590546932922498
 21
18.228730938684123
 31
0.0
  0
LINE
  5
2A2
100
AcDbEntity
100
AcDbLine
  8
1
 62
256
370
-1
  6
ByLayer
 10
2.7054650346498326
 20
17.0306545541648902
 30
0.0
 11
1.7839260037325038
 21
17.0306544158322239
 31
0.0
  0
LINE
  5
2A3
100
AcDbEntity
100
AcDbLine
  8
1
 62
256
370
-1
  6
ByLayer
 10
1.668455919872476
 20
17.2306543984989489
 30
0.0
 11
0.9756355968449367
 21
17.2306542944993524
 31
0.0
  0
LINE
  5
2A4
100
AcDbEntity
100
AcDbLine
  8
1
 62
256
370
-1
  6
ByLayer
 10
1.7839260037325038
 20
17.0306544158322239
 30
0.0
 11
1.668455919872476
 21
17.2306543984989489
 31
0.0
  0
LINE
  5
2A5
100
AcDbEntity
100
AcDbLine
  8
1
 62
256
370
-1
  6
ByLayer
 10
1.6684561000050695
 20
16.0306543984989602
 30
0.0
 11
0.97563577697752
 21
16.0306542944993673
 31
0.0
  0
LINE
  5
2A6
100
AcDbEntity
100
AcDbLine
  8
1
 62
256
370
-1
  6
ByLayer
 10
1.7839261238208894
 20
16.2306544158322232
 30
0.0
 11
1.6684561000050695
 21
16.0306543984989602
 31
0.0
  0
LINE
  5
2A7
100
AcDbEntity
100
AcDbLine
  8
1
 62
256
370
-1
  6
ByLayer
 10
3.167345370089925
 20
16.2306546234979621
 30
0.0
 11
1.7839261238208894
 21
16.2306544158322232
 31
0.0
  0
LINE
  5
2A8
100
AcDbEntity
100
AcDbLine
  8
1
 62
256
370
-1
  6
ByLayer
 10
1.9824504342016673
 20
10.293960801647728
 30
0.0
 11
1.6360401826215918
 21
10.8939607496479294
 31
0.0
  0
LINE
  5
2A9
100
AcDbEntity
100
AcDbLine
  8
1
 62
256
370
-1
  6
ByLayer
 10
1.8669804103858361
 20
10.0939607843144685
 30
0.0
 11
1.9824504342016673
 21
10.293960801647728
 31
0.0
  0
LINE
  5
2AA
100
AcDbEntity
100
AcDbLine
  8
1
 62
256
370
-1
  6
ByLayer
 10
0.9432200397266356
 20
9.6939606456483514
 30
0.0
 11
0.5968097881465716
 21
10.2939605936485385
 31
0.0
  0
LINE
  5
2AB
100
AcDbEntity
100
AcDbLine
  8
1
 62
256
370
-1
  6
ByLayer
 10
1.1741601474024816
 20
9.6939606803148806
 30
0.0
 11
0.9432200397266356
 21
9.6939606456483514
 31
0.0
  0
LINE
  5
2AC
100
AcDbEntity
100
AcDbLine
  8
1
 62
256
370
-1
  6
ByLayer
 10
6.620750958796406
 20
12.2674791365838534
 30
0.0
 11
8.7080366807855309
 21
15.8827646836291532
 31
0.0
  0
LINE
  5
2AD
100
AcDbEntity
100
AcDbLine
  8
1
 62
256
370
-1
  6
ByLayer
 10
3.8601656330732661
 20
16.6306547274975536
 30
0.0
 11
6.620750958796406
 21
12.2674791365838534
 31
0.0
  0
LINE
  5
2AE
100
AcDbEntity
100
AcDbLine
  8
1
 62
256
370
-1
  6
ByLayer
 10
3.167345370089925
 20
16.2306546234979621
 30
0.0
 11
5.917809743254165
 21
11.0499490254927633
 31
0.0
  0
LINE
  5
2AF
100
AcDbEntity
100
AcDbLine
  8
1
 62
256
370
-1
  6
ByLayer
 10
3.7400556387804365
 20
7.2779676163450802
 30
0.0
 11
1.8669804103858361
 21
10.0939607843144685
 31
0.0
  0
LINE
  5
2B0
100
AcDbEntity
100
AcDbLine
  8
1
 62
256
370
-1
  6
ByLayer
 10
3.7400556387804365
 20
7.2779676163450802
 30
0.0
 11
5.917809743254165
 21
11.0499490254927633
 31
0.0
  0
LINE
  5
2B1
100
AcDbEntity
100
AcDbLine
  8
1
 62
256
370
-1
  6
ByLayer
 10
1.1741601474024816
 20
9.6939606803148806
 30
0.0
 11
3.028200960849913
 21
6.0587538528745188
 31
0.0
  0
LINE
  5
2B2
100
AcDbEntity
100
AcDbLine
  8
1
 62
256
370
-1
  6
ByLayer
 10
12.332393912813238
 20
22.5603366943888091
 30
0.0
 11
13.0252142358407799
 21
22.5603367463886109
 31
0.0
  0
LINE
  5
2B3
100
AcDbEntity
100
AcDbLine
  8
1
 62
256
370
-1
  6
ByLayer
 10
13.3716244423876915
 20
21.9603367723885157
 30
0.0
 11
13.0252142358407799
 21
22.5603367463886109
 31
0.0
  0
LINE
  5
2B4
100
AcDbEntity
100
AcDbLine
  8
1
 62
256
370
-1
  6
ByLayer
 10
17.3104182210698276
 20
11.8583307370567557
 30
0.0
 11
17.6568283825836048
 21
11.2583307370567471
 31
0.0
  0
LINE
  5
2B5
100
AcDbEntity
100
AcDbLine
  8
1
 62
256
370
-1
  6
ByLayer
 10
17.3104182210698347
 20
10.6583307370567404
 30
0.0
 11
17.6568283825836048
 21
11.2583307370567471
 31
0.0
  0
LINE
  5
2B6
100
AcDbEntity
100
AcDbLine
  8
1
 62
256
370
-1
  6
ByLayer
 10
16.6175978980422769
 20
11.8583307370567503
 30
0.0
 11
17.3104182210698276
 21
11.8583307370567557
 31
0.0
  0
LINE
  5
2B7
100
AcDbEntity
100
AcDbLine
  8
1
 62
256
370
-1
  6
ByLayer
 10
16.617597898042284
 20
10.6583307370567439
 30
0.0
 11
17.3104182210698347
 21
10.6583307370567404
 31
0.0
  0
LINE
  5
2B8
100
AcDbEntity
100
AcDbLine
  8
1
 62
256
370
-1
  6
ByLayer
 10
1.6144034138585641
 20
20.9204275404469904
 30
0.0
 11
0.9215830908310328
 21
20.920427436447401
 31
0.0
  0
LINE
  5
2B9
100
AcDbEntity
100
AcDbLine
  8
1
 62
256
370
-1
  6
ByLayer
 10
0.5751730193835608
 20
20.320427384447612
 30
0.0
 11
0.9215830908310328
 21
20.920427436447401
 31
0.0
  0
LINE
  5
2BA
100
AcDbEntity
100
AcDbLine
  8
1
 62
256
370
-1
  6
ByLayer
 10
1.9608136654386412
 20
20.320427592446805
 30
0.0
 11
1.6144034138585641
 21
20.9204275404469904
 31
0.0
  0
LINE
  5
2BB
100
AcDbEntity
100
AcDbLine
  8
1
 62
256
370
-1
  6
ByLayer
 10
0.9215832709636093
 20
19.7204274364474159
 30
0.0
 11
0.5751730193835608
 21
20.320427384447612
 31
0.0
  0
LINE
  5
2BC
100
AcDbEntity
100
AcDbLine
  8
1
 62
256
370
-1
  6
ByLayer
 10
3.3982852976331799
 20
17.4306546581644781
 30
0.0
 11
1.8453436416228111
 21
20.120427575113542
 31
0.0
  0
LINE
  5
2BD
100
AcDbEntity
100
AcDbLine
  8
1
 62
256
370
-1
  6
ByLayer
 10
1.8453436416228111
 20
20.120427575113542
 30
0.0
 11
1.9608136654386412
 21
20.320427592446805
 31
0.0
  0
LINE
  5
2BE
100
AcDbEntity
100
AcDbLine
  8
1
 62
256
370
-1
  6
ByLayer
 10
2.7054650346498326
 20
17.0306545541648902
 30
0.0
 11
1.1525233786394626
 21
19.7204274711139504
 31
0.0
  0
LINE
  5
2BF
100
AcDbEntity
100
AcDbLine
  8
1
 62
256
370
-1
  6
ByLayer
 10
1.1525233786394626
 20
19.7204274711139504
 30
0.0
 11
0.9215832709636093
 21
19.7204274364474159
 31
0.0
  0
LINE
  5
2C0
100
AcDbEntity
100
AcDbLine
  8
1
 62
256
370
-1
  6
ByLayer
 10
13.3962453397098855
 20
11.658330737056751
 30
0.0
 11
16.502127844204356
 21
11.6583307370567475
 31
0.0
  0
LINE
  5
2C1
100
AcDbEntity
100
AcDbLine
  8
1
 62
256
370
-1
  6
ByLayer
 10
16.502127844204356
 20
11.6583307370567475
 30
0.0
 11
16.6175978980422769
 21
11.8583307370567503
 31
0.0
  0
LINE
  5
2C2
100
AcDbEntity
100
AcDbLine
  8
1
 62
256
370
-1
  6
ByLayer
 10
13.3962453397098873
 20
10.8583307370567521
 30
0.0
 11
16.502127844204356
 21
10.8583307370567486
 31
0.0
  0
LINE
  5
2C3
100
AcDbEntity
100
AcDbLine
  8
1
 62
256
370
-1
  6
ByLayer
 10
16.502127844204356
 20
10.8583307370567486
 30
0.0
 11
16.617597898042284
 21
10.6583307370567439
 31
0.0
  0
LINE
  5
2C4
100
AcDbEntity
100
AcDbLine
  8
1
 62
256
370
-1
  6
ByLayer
 10
3.028200960849913
 20
6.0587538528745188
 30
0.0
 11
1.1147918563420871
 21
2.9529413117095933
 31
0.0
  0
LINE
  5
2C5
100
AcDbEntity
100
AcDbLine
  8
1
 62
256
370
-1
  6
ByLayer
 10
-3.0282018703323588
 20
6.0587533983097357
 30
0.0
 11
-1.1147922996095332
 21
2.9529411443676148
 31
0.0
  0
LINE
  5
2C6
100
AcDbEntity
100
AcDbLine
  8
1
 62
256
370
-1
  6
ByLayer
 10
1.1147918563420871
 20
2.9529413117095933
 30
0.0
 11
-1.1147922996095332
 21
2.9529411443676148
 31
0.0
  0
LINE
  5
2C7
100
AcDbEntity
100
AcDbLine
  8
1
 62
256
370
-1
  6
ByLayer
 10
-3.732934271441227
 20
5.6518758862977272
 30
0.0
 11
-1.9999262636540092
 21
2.4419087233790551
 31
0.0
  0
LINE
  5
2C8
100
AcDbEntity
100
AcDbLine
  8
1
 62
256
370
-1
  6
ByLayer
 10
-6.7611352933677082
 20
0.4068769516594938
 30
0.0
 11
-3.1147181967074147
 21
0.511032120778678
 31
0.0
  0
LINE
  5
2C9
100
AcDbEntity
100
AcDbLine
  8
1
 62
256
370
-1
  6
ByLayer
 10
-1.9999262636540092
 20
2.4419087233790551
 30
0.0
 11
-3.1147181967074147
 21
0.511032120778678
 31
0.0
  0
LINE
  5
2CA
100
AcDbEntity
100
AcDbLine
  8
1
 62
256
370
-1
  6
ByLayer
 10
-6.7611352322911342
 20
-0.406877966576791
 30
0.0
 11
-3.114718119996077
 21
-0.5110325883305384
 31
0.0
  0
LINE
  5
2CB
100
AcDbEntity
100
AcDbLine
  8
1
 62
256
370
-1
  6
ByLayer
 10
-3.7329334230353504
 20
-5.6518764466502409
 30
0.0
 11
-1.9999258970978719
 21
-2.4419090235889218
 31
0.0
  0
LINE
  5
2CC
100
AcDbEntity
100
AcDbLine
  8
1
 62
256
370
-1
  6
ByLayer
 10
-3.114718119996077
 20
-0.5110325883305384
 30
0.0
 11
-1.9999258970978719
 21
-2.4419090235889218
 31
0.0
  0
LINE
  5
2CD
100
AcDbEntity
100
AcDbLine
  8
1
 62
256
370
-1
  6
ByLayer
 10
-3.0282009608499125
 20
-6.0587538528745188
 30
0.0
 11
-1.114791856342068
 21
-2.9529413117095626
 31
0.0
  0
LINE
  5
2CE
100
AcDbEntity
100
AcDbLine
  8
1
 62
256
370
-1
  6
ByLayer
 10
3.028201870332361
 20
-6.0587533983097348
 30
0.0
 11
1.1147922996095168
 21
-2.9529411443675859
 31
0.0
  0
LINE
  5
2CF
100
AcDbEntity
100
AcDbLine
  8
1
 62
256
370
-1
  6
ByLayer
 10
-1.114791856342068
 20
-2.9529413117095626
 30
0.0
 11
1.1147922996095168
 21
-2.9529411443675859
 31
0.0
  0
LINE
  5
2D0
100
AcDbEntity
100
AcDbLine
  8
1
 62
256
370
-1
  6
ByLayer
 10
3.7329342714412252
 20
-5.6518758862977272
 30
0.0
 11
1.9999262636539903
 21
-2.4419087233790218
 31
0.0
  0
LINE
  5
2D1
100
AcDbEntity
100
AcDbLine
  8
1
 62
256
370
-1
  6
ByLayer
 10
6.7611352933677074
 20
-0.4068769516595007
 30
0.0
 11
3.1147181967073765
 21
-0.5110321207786822
 31
0.0
  0
LINE
  5
2D2
100
AcDbEntity
100
AcDbLine
  8
1
 62
256
370
-1
  6
ByLayer
 10
1.9999262636539903
 20
-2.4419087233790218
 30
0.0
 11
3.1147181967073765
 21
-0.5110321207786822
 31
0.0
  0
LINE
  5
2D3
100
AcDbEntity
100
AcDbLine
  8
1
 62
256
370
-1
  6
ByLayer
 10
6.7611352322911342
 20
0.4068779665767903
 30
0.0
 11
3.1147181199960734
 21
0.5110325883305382
 31
0.0
  0
LINE
  5
2D4
100
AcDbEntity
100
AcDbLine
  8
1
 62
256
370
-1
  6
ByLayer
 10
3.7329334230353513
 20
5.65187644665024
 30
0.0
 11
1.9999258970978717
 21
2.4419090235889205
 31
0.0
  0
LINE
  5
2D5
100
AcDbEntity
100
AcDbLine
  8
1
 62
256
370
-1
  6
ByLayer
 10
3.1147181199960734
 20
0.5110325883305382
 30
0.0
 11
1.9999258970978717
 21
2.4419090235889205
 31
0.0
  0
ENDSEC
  0
SECTION
  2
OBJECTS
  0
DICTIONARY
  5
C
100
AcDbDictionary
280
0
281
1
  3
ACAD_GROUP
350
D
  3
ACAD_LAYOUT
350
1A
  3
ACAD_MLINESTYLE
350
17
  3
ACAD_PLOTSETTINGS
350
19
  3
ACAD_PLOTSTYLENAME
350
E
  3
AcDbVariableDictionary
350
2D6
  0
DICTIONARY
  5
D
100
AcDbDictionary
280
0
281
1
  0
ACDBDICTIONARYWDFLT
  5
E
100
AcDbDictionary
281
1
  3
Normal
350
F
100
AcDbDictionaryWithDefault
340
F
  0
ACDBPLACEHOLDER
  5
F
  0
DICTIONARY
  5
17
100
AcDbDictionary
280
0
281
1
  3
Standard
350
18
  0
MLINESTYLE
  5
18
100
AcDbMlineStyle
  2
STANDARD
 70
0
  3

 62
256
 51
90.0
 52
90.0
 71
2
 49
0.5
 62
256
  6
BYLAYER
 49
-0.5
 62
256
  6
BYLAYER
  0
DICTIONARY
  5
19
100
AcDbDictionary
280
0
281
1
  0
DICTIONARY
  5
1A
100
AcDbDictionary
281
1
  3
Layout1
350
1E
  3
Layout2
350
26
  3
Model
350
22
  0
LAYOUT
  5
1E
100
AcDbPlotSettings
  1

  2
C:\Program Files\AutoCAD 2002\plotters\DWF ePlot (optimized for plotting).pc3
  4

  6

 40
0.0
 41
0.0
 42
0.0
 43
0.0
 44
0.0
 45
0.0
 46
0.0
 47
0.0
 48
0.0
 49
0.0
140
0.0
141
0.0
142
1.0
143
1.0
 70
688
 72
0
 73
0
 74
5
  7

 75
16
147
1.0
148
0.0
149
0.0
100
AcDbLayout
  1
Layout1
 70
1
 71
1
 10
0.0
 20
0.0
 11
420.0
 21
297.0
 12
0.0
 22
0.0
 32
0.0
 14
100000000000000000000.0
 24
100000000000000000000.0
 34
100000000000000000000.0
 15
-100000000000000000000.0
 25
-100000000000000000000.0
 35
-100000000000000000000.0
146
0.0
 13
0.0
 23
0.0
 33
0.0
 16
1.0
 26
0.0
 36
0.0
 17
0.0
 27
1.0
 37
0.0
 76
0
330
1B
  0
LAYOUT
  5
22
100
AcDbPlotSettings
  1

  2
C:\Program Files\AutoCAD 2002\plotters\DWF ePlot (optimized for plotting).pc3
  4

  6

 40
0.0
 41
0.0
 42
0.0
 43
0.0
 44
0.0
 45
0.0
 46
0.0
 47
0.0
 48
0.0
 49
0.0
140
0.0
141
0.0
142
1.0
143
1.0
 70
1712
 72
0
 73
0
 74
0
  7

 75
0
147
1.0
148
0.0
149
0.0
100
AcDbLayout
  1
Model
 70
1
 71
0
 10
0.0
 20
0.0
 11
12.0
 21
9.0
 12
0.0
 22
0.0
 32
0.0
 14
0.0
 24
0.0
 34
0.0
 15
0.0
 25
0.0
 35
0.0
146
0.0
 13
0.0
 23
0.0
 33
0.0
 16
1.0
 26
0.0
 36
0.0
 17
0.0
 27
1.0
 37
0.0
 76
0
330
1F
  0
LAYOUT
  5
26
100
AcDbPlotSettings
  1

  2
C:\Program Files\AutoCAD 2002\plotters\DWF ePlot (optimized for plotting).pc3
  4

  6

 40
0.0
 41
0.0
 42
0.0
 43
0.0
 44
0.0
 45
0.0
 46
0.0
 47
0.0
 48
0.0
 49
0.0
140
0.0
141
0.0
142
1.0
143
1.0
 70
688
 72
0
 73
0
 74
5
  7

 75
16
147
1.0
148
0.0
149
0.0
100
AcDbLayout
  1
Layout2
 70
1
 71
2
 10
0.0
 20
0.0
 11
12.0
 21
9.0
 12
0.0
 22
0.0
 32
0.0
 14
0.0
 24
0.0
 34
0.0
 15
0.0
 25
0.0
 35
0.0
146
0.0
 13
0.0
 23
0.0
 33
0.0
 16
1.0
 26
0.0
 36
0.0
 17
0.0
 27
1.0
 37
0.0
 76
0
330
23
  0
DICTIONARY
  5
2D6
100
AcDbDictionary
281
1
  3
DIMASSOC
350
2D8
  3
HIDETEXT
350
2D7
  0
DICTIONARYVAR
  5
2D7
100
DictionaryVariables
280
0
  1
2
  0
DICTIONARYVAR
  5
2D8
100
DictionaryVariables
280
0
  1
1
  0
ENDSEC
  0
EOF
