999
dxfrw 0.6.3
  0
SECTION
  2
HEADER
  9
$ACADVER
  1
AC1021
  9
$DWGCODEPAGE
  3
ANSI_1252
  9
$INSBASE
 10
0
 20
0
 30
0
  9
$EXTMIN
 10
-45
 20
-45
 30
0
  9
$EXTMAX
 10
40
 20
40
 30
0
  9
$LIMMIN
 10
0
 20
0
  9
$LIMMAX
 10
420
 20
297
  9
$ORTHOMODE
 70
    0
  9
$REGENMODE
 70
    1
  9
$FILLMODE
 70
    1
  9
$QTEXTMODE
 70
    0
  9
$MIRRTEXT
 70
    0
  9
$LTSCALE
 40
1
  9
$ATTMODE
 70
    0
  9
$TEXTSIZE
 40
2.5
  9
$TRACEWID
 40
15.68
  9
$TEXTSTYLE
  7
STANDARD
  9
$CLAYER
  8
0
  9
$CELTYPE
  6
BYLAYER
  9
$CECOLOR
 62
  256
  9
$CELTSCALE
 40
1
  9
$DISPSILH
 70
    0
  9
$DIMSCALE
 40
2.5
  9
$DIMASZ
 40
2.5
  9
$DIMEXO
 40
0.625
  9
$DIMDLI
 40
3.75
  9
$DIMRND
 40
0
  9
$DIMDLE
 40
0
  9
$DIMEXE
 40
1.25
  9
$DIMTP
 40
0
  9
$DIMTM
 40
0
  9
$DIMTXT
 40
2.5
  9
$DIMCEN
 40
2.5
  9
$DIMTSZ
 40
0
  9
$DIMTOL
 70
    0
  9
$DIMLIM
 70
    0
  9
$DIMTIH
 70
    0
  9
$DIMTOH
 70
    0
  9
$DIMSE1
 70
    0
  9
$DIMSE2
 70
    0
  9
$DIMTAD
 70
    1
  9
$DIMZIN
 70
    8
  9
$DIMBLK
  1

  9
$DIMASO
 70
    1
  9
$DIMSHO
 70
    1
  9
$DIMPOST
  1

  9
$DIMAPOST
  1

  9
$DIMALT
 70
    0
  9
$DIMALTD
 70
    3
  9
$DIMALTF
 40
0.03937
  9
$DIMLFAC
 40
1
  9
$DIMTOFL
 70
    1
  9
$DIMTVP
 40
0
  9
$DIMTIX
 70
    0
  9
$DIMSOXD
 70
    0
  9
$DIMSAH
 70
    0
  9
$DIMBLK1
  1

  9
$DIMBLK2
  1

  9
$DIMSTYLE
  2
STANDARD
  9
$DIMCLRD
 70
    0
  9
$DIMCLRE
 70
    0
  9
$DIMCLRT
 70
    0
  9
$DIMTFAC
 40
1
  9
$DIMGAP
 40
0.625
  9
$DIMJUST
 70
    0
  9
$DIMSD1
 70
    0
  9
$DIMSD2
 70
    0
  9
$DIMTOLJ
 70
    0
  9
$DIMTZIN
 70
    8
  9
$DIMALTZ
 70
    0
  9
$DIMALTTZ
 70
    0
  9
$DIMUPT
 70
    0
  9
$DIMDEC
 70
    2
  9
$DIMTDEC
 70
    2
  9
$DIMALTU
 70
    2
  9
$DIMALTTD
 70
    3
  9
$DIMTXSTY
  7
STANDARD
  9
$DIMAUNIT
 70
    0
  9
$DIMADEC
 70
    0
  9
$DIMALTRND
 40
0
  9
$DIMAZIN
 70
    0
  9
$DIMDSEP
 70
   44
  9
$DIMATFIT
 70
    3
  9
$DIMFRAC
 70
    0
  9
$DIMLDRBLK
  1
STANDARD
  9
$DIMLUNIT
 70
    2
  9
$DIMLWD
 70
   -2
  9
$DIMLWE
 70
   -2
  9
$DIMTMOVE
 70
    0
  9
$DIMFXL
 40
1
  9
$DIMFXLON
 70
    0
  9
$DIMJOGANG
 40
0.7854
  9
$DIMTFILL
 70
    0
  9
$DIMTFILLCLR
 70
    0
  9
$DIMARCSYM
 70
    0
  9
$DIMLTYPE
  6

  9
$DIMLTEX1
  6

  9
$DIMLTEX2
  6

  9
$LUNITS
 70
    2
  9
$LUPREC
 70
    4
  9
$SKETCHINC
 40
1
  9
$FILLETRAD
 40
0
  9
$AUNITS
 70
    0
  9
$AUPREC
 70
    2
  9
$MENU
  1
.
  9
$ELEVATION
 40
0
  9
$PELEVATION
 40
0
  9
$THICKNESS
 40
0
  9
$LIMCHECK
 70
    0
  9
$CHAMFERA
 40
0
  9
$CHAMFERB
 40
0
  9
$CHAMFERC
 40
0
  9
$CHAMFERD
 40
0
  9
$SKPOLY
 70
    0
  9
$USRTIMER
 70
    1
  9
$ANGBASE
 50
0
  9
$ANGDIR
 70
    0
  9
$PDMODE
 70
   34
  9
$PDSIZE
 40
0
  9
$PLINEWID
 40
0
  9
$SPLFRAME
 70
    0
  9
$SPLINETYPE
 70
    2
  9
$SPLINESEGS
 70
    8
  9
$HANDSEED
  5
20000
  9
$SURFTAB1
 70
    6
  9
$SURFTAB2
 70
    6
  9
$SURFTYPE
 70
    6
  9
$SURFU
 70
    6
  9
$SURFV
 70
    6
  9
$UCSBASE
  2

  9
$UCSNAME
  2

  9
$UCSORG
 10
0
 20
0
 30
0
  9
$UCSXDIR
 10
1
 20
0
 30
0
  9
$UCSYDIR
 10
0
 20
1
 30
0
  9
$UCSORTHOREF
  2

  9
$UCSORTHOVIEW
 70
    0
  9
$UCSORGTOP
 10
0
 20
0
 30
0
  9
$UCSORGBOTTOM
 10
0
 20
0
 30
0
  9
$UCSORGLEFT
 10
0
 20
0
 30
0
  9
$UCSORGRIGHT
 10
0
 20
0
 30
0
  9
$UCSORGFRONT
 10
0
 20
0
 30
0
  9
$UCSORGBACK
 10
0
 20
0
 30
0
  9
$PUCSBASE
  2

  9
$PUCSNAME
  2

  9
$PUCSORG
 10
0
 20
0
 30
0
  9
$PUCSXDIR
 10
1
 20
0
 30
0
  9
$PUCSYDIR
 10
0
 20
1
 30
0
  9
$PUCSORTHOREF
  2

  9
$PUCSORTHOVIEW
 70
    0
  9
$PUCSORGTOP
 10
0
 20
0
 30
0
  9
$PUCSORGBOTTOM
 10
0
 20
0
 30
0
  9
$PUCSORGLEFT
 10
0
 20
0
 30
0
  9
$PUCSORGRIGHT
 10
0
 20
0
 30
0
  9
$PUCSORGFRONT
 10
0
 20
0
 30
0
  9
$PUCSORGBACK
 10
0
 20
0
 30
0
  9
$USERI1
 70
    0
  9
$USERI2
 70
    0
  9
$USERI3
 70
    0
  9
$USERI4
 70
    0
  9
$USERI5
 70
    0
  9
$USERR1
 40
0
  9
$USERR2
 40
0
  9
$USERR3
 40
0
  9
$USERR4
 40
0
  9
$USERR5
 40
0
  9
$WORLDVIEW
 70
    1
  9
$SHADEDGE
 70
    3
  9
$SHADEDIF
 70
   70
  9
$TILEMODE
 70
    1
  9
$MAXACTVP
 70
   64
  9
$PINSBASE
 10
0
 20
0
 30
0
  9
$PLIMCHECK
 70
    0
  9
$PEXTMIN
 10
0
 20
0
 30
0
  9
$PEXTMAX
 10
0
 20
0
 30
0
  9
$GRIDMODE
 70
    1
  9
$SNAPSTYLE
 70
    0
  9
$PLIMMIN
 10
0
 20
0
  9
$PLIMMAX
 10
279.4
 20
215.9
  9
$UNITMODE
 70
    0
  9
$VISRETAIN
 70
    1
  9
$PLINEGEN
 70
    0
  9
$PSLTSCALE
 70
    1
  9
$TREEDEPTH
 70
 3020
  9
$CMLSTYLE
  2
Standard
  9
$CMLJUST
 70
    0
  9
$CMLSCALE
 40
20
  9
$PROXYGRAPHICS
 70
    1
  9
$MEASUREMENT
 70
    1
  9
$CELWEIGHT
370
   -1
  9
$ENDCAPS
280
    0
  9
$JOINSTYLE
280
    0
  9
$LWDISPLAY
290
    0
  9
$INSUNITS
 70
    4
  9
$HYPERLINKBASE
  1

  9
$STYLESHEET
  1

  9
$XEDIT
290
    1
  9
$CEPSNTYPE
380
    0
  9
$PSTYLEMODE
290
    1
  9
$EXTNAMES
290
    1
  9
$PSVPSCALE
 40
1
  9
$OLESTARTUP
290
    0
  9
$SORTENTS
280
  127
  9
$INDEXCTL
280
    0
  9
$HIDETEXT
280
    1
  9
$XCLIPFRAME
290
    0
  9
$HALOGAP
280
    0
  9
$OBSCOLOR
 70
  257
  9
$OBSLTYPE
280
    0
  9
$INTERSECTIONDISPLAY
280
    0
  9
$INTERSECTIONCOLOR
 70
  257
  9
$DIMASSOC
280
    1
  9
$PROJECTNAME
  1

  9
$CAMERADISPLAY
290
    0
  9
$LENSLENGTH
 40
50
  9
$CAMERAHEIGHT
 40
0
  9
$STEPSPERSEC
 40
2
  9
$STEPSIZE
 40
50
  9
$3DDWFPREC
 40
2
  9
$PSOLWIDTH
 40
5
  9
$PSOLHEIGHT
 40
80
  9
$LOFTANG1
 40
1.570796326794897
  9
$LOFTANG2
 40
1.570796326794897
  9
$LOFTMAG1
 40
0
  9
$LOFTMAG2
 40
0
  9
$LOFTPARAM
 70
    7
  9
$LOFTNORMALS
280
    1
  9
$LATITUDE
 40
1
  9
$LONGITUDE
 40
1
  9
$NORTHDIRECTION
 40
0
  9
$TIMEZONE
 70
-8000
  9
$LIGHTGLYPHDISPLAY
280
    1
  9
$TILEMODELIGHTSYNCH
280
    1
  9
$SOLIDHIST
280
    1
  9
$SHOWHIST
280
    1
  9
$DWFFRAME
280
    2
  9
$DGNFRAME
280
    0
  9
$REALWORLDSCALE
290
    1
  9
$INTERFERECOLOR
 62
    1
  9
$CSHADOW
280
    0
  9
$SHADOWPLANELOCATION
 40
0
  0
ENDSEC
  0
SECTION
  2
CLASSES
  0
ENDSEC
  0
SECTION
  2
TABLES
  0
TABLE
  2
VPORT
  5
8
330
0
100
AcDbSymbolTable
 70
    1
  0
VPORT
  5
31
330
2
100
AcDbSymbolTableRecord
100
AcDbViewportTableRecord
  2
*ACTIVE
 70
    0
 10
0
 20
0
 11
1
 21
1
 12
30.35481338504141
 22
18.31323452155391
 13
0
 23
0
 14
10
 24
10
 15
10
 25
10
 16
0
 26
0
 36
1
 17
0
 27
0
 37
0
 40
77.26679770737813
 41
1.545454545454545
 42
50
 43
0
 44
0
 50
0
 51
0
 71
    0
 72
  100
 73
    1
 74
    3
 75
    0
 76
    1
 77
    0
 78
    0
281
    0
 65
    1
110
0
120
0
130
0
111
1
121
0
131
0
112
0
122
1
132
0
 79
    0
146
0
348
10020
 60
    7
 61
    5
292
1
282
    1
141
0
142
0
 63
  250
421
3358443
  0
ENDTAB
  0
TABLE
  2
LTYPE
  5
5
330
0
100
AcDbSymbolTable
 70
    4
  0
LTYPE
  5
14
330
5
100
AcDbSymbolTableRecord
100
AcDbLinetypeTableRecord
  2
ByBlock
 70
    0
  3

 72
   65
 73
    0
 40
0
  0
LTYPE
  5
15
330
5
100
AcDbSymbolTableRecord
100
AcDbLinetypeTableRecord
  2
ByLayer
 70
    0
  3

 72
   65
 73
    0
 40
0
  0
LTYPE
  5
16
330
5
100
AcDbSymbolTableRecord
100
AcDbLinetypeTableRecord
  2
Continuous
 70
    0
  3
Solid line
 72
   65
 73
    0
 40
0
  0
LTYPE
  5
32
330
5
100
AcDbSymbolTableRecord
100
AcDbLinetypeTableRecord
  2
DOT
 70
    0
  3
Dot . . . . . . . . . . . . . . . . . . . . . .
 72
   65
 73
    2
 40
6.35
 49
0
 74
    0
 49
-6.35
 74
    0
  0
LTYPE
  5
33
330
5
100
AcDbSymbolTableRecord
100
AcDbLinetypeTableRecord
  2
DOTTINY
 70
    0
  3
Dot (.15x) .....................................
 72
   65
 73
    2
 40
0.9525
 49
0
 74
    0
 49
-0.9525
 74
    0
  0
LTYPE
  5
34
330
5
100
AcDbSymbolTableRecord
100
AcDbLinetypeTableRecord
  2
DOT2
 70
    0
  3
Dot (.5x) .....................................
 72
   65
 73
    2
 40
3.175
 49
0
 74
    0
 49
-3.175
 74
    0
  0
LTYPE
  5
35
330
5
100
AcDbSymbolTableRecord
100
AcDbLinetypeTableRecord
  2
DOTX2
 70
    0
  3
Dot (2x) .  .  .  .  .  .  .  .  .  .  .  .  .
 72
   65
 73
    2
 40
12.7
 49
0
 74
    0
 49
-12.7
 74
    0
  0
LTYPE
  5
36
330
5
100
AcDbSymbolTableRecord
100
AcDbLinetypeTableRecord
  2
DASHED
 70
    0
  3
Dashed _ _ _ _ _ _ _ _ _ _ _ _ _ _ _ _ _
 72
   65
 73
    2
 40
19.05
 49
12.7
 74
    0
 49
-6.35
 74
    0
  0
LTYPE
  5
37
330
5
100
AcDbSymbolTableRecord
100
AcDbLinetypeTableRecord
  2
DASHEDTINY
 70
    0
  3
Dashed (.15x) _ _ _ _ _ _ _ _ _ _ _ _ _ _ _ _ _
 72
   65
 73
    2
 40
2.8575
 49
1.905
 74
    0
 49
-0.9525
 74
    0
  0
LTYPE
  5
38
330
5
100
AcDbSymbolTableRecord
100
AcDbLinetypeTableRecord
  2
DASHED2
 70
    0
  3
Dashed (.5x) _ _ _ _ _ _ _ _ _ _ _ _ _ _ _ _ _
 72
   65
 73
    2
 40
9.524999999999999
 49
6.35
 74
    0
 49
-3.175
 74
    0
  0
LTYPE
  5
39
330
5
100
AcDbSymbolTableRecord
100
AcDbLinetypeTableRecord
  2
DASHEDX2
 70
    0
  3
Dashed (2x) ____  ____  ____  ____  ____  ___
 72
   65
 73
    2
 40
38.09999999999999
 49
25.4
 74
    0
 49
-12.7
 74
    0
  0
LTYPE
  5
3A
330
5
100
AcDbSymbolTableRecord
100
AcDbLinetypeTableRecord
  2
DASHDOT
 70
    0
  3
Dash dot __ . __ . __ . __ . __ . __ . __ . __
 72
   65
 73
    4
 40
25.4
 49
12.7
 74
    0
 49
-6.35
 74
    0
 49
0
 74
    0
 49
-6.35
 74
    0
  0
LTYPE
  5
3B
330
5
100
AcDbSymbolTableRecord
100
AcDbLinetypeTableRecord
  2
DASHDOTTINY
 70
    0
  3
Dash dot (.15x) _._._._._._._._._._._._._._._.
 72
   65
 73
    4
 40
3.81
 49
1.905
 74
    0
 49
-0.9525
 74
    0
 49
0
 74
    0
 49
-0.9525
 74
    0
  0
LTYPE
  5
3C
330
5
100
AcDbSymbolTableRecord
100
AcDbLinetypeTableRecord
  2
DASHDOT2
 70
    0
  3
Dash dot (.5x) _._._._._._._._._._._._._._._.
 72
   65
 73
    4
 40
12.7
 49
6.35
 74
    0
 49
-3.175
 74
    0
 49
0
 74
    0
 49
-3.175
 74
    0
  0
LTYPE
  5
3D
330
5
100
AcDbSymbolTableRecord
100
AcDbLinetypeTableRecord
  2
DASHDOTX2
 70
    0
  3
Dash dot (2x) ____  .  ____  .  ____  .  ___
 72
   65
 73
    4
 40
50.8
 49
25.4
 74
    0
 49
-12.7
 74
    0
 49
0
 74
    0
 49
-12.7
 74
    0
  0
LTYPE
  5
3E
330
5
100
AcDbSymbolTableRecord
100
AcDbLinetypeTableRecord
  2
DIVIDE
 70
    0
  3
Divide ____ . . ____ . . ____ . . ____ . . ____
 72
   65
 73
    6
 40
31.75
 49
12.7
 74
    0
 49
-6.35
 74
    0
 49
0
 74
    0
 49
-6.35
 74
    0
 49
0
 74
    0
 49
-6.35
 74
    0
  0
LTYPE
  5
3F
330
5
100
AcDbSymbolTableRecord
100
AcDbLinetypeTableRecord
  2
DIVIDETINY
 70
    0
  3
Divide (.15x) __..__..__..__..__..__..__..__.._
 72
   65
 73
    6
 40
4.7625
 49
1.905
 74
    0
 49
-0.9525
 74
    0
 49
0
 74
    0
 49
-0.9525
 74
    0
 49
0
 74
    0
 49
-0.9525
 74
    0
  0
LTYPE
  5
40
330
5
100
AcDbSymbolTableRecord
100
AcDbLinetypeTableRecord
  2
DIVIDE2
 70
    0
  3
Divide (.5x) __..__..__..__..__..__..__..__.._
 72
   65
 73
    6
 40
15.875
 49
6.35
 74
    0
 49
-3.175
 74
    0
 49
0
 74
    0
 49
-3.175
 74
    0
 49
0
 74
    0
 49
-3.175
 74
    0
  0
LTYPE
  5
41
330
5
100
AcDbSymbolTableRecord
100
AcDbLinetypeTableRecord
  2
DIVIDEX2
 70
    0
  3
Divide (2x) ________  .  .  ________  .  .  _
 72
   65
 73
    6
 40
63.5
 49
25.4
 74
    0
 49
-12.7
 74
    0
 49
0
 74
    0
 49
-12.7
 74
    0
 49
0
 74
    0
 49
-12.7
 74
    0
  0
LTYPE
  5
42
330
5
100
AcDbSymbolTableRecord
100
AcDbLinetypeTableRecord
  2
BORDER
 70
    0
  3
Border __ __ . __ __ . __ __ . __ __ . __ __ .
 72
   65
 73
    6
 40
44.45
 49
12.7
 74
    0
 49
-6.35
 74
    0
 49
12.7
 74
    0
 49
-6.35
 74
    0
 49
0
 74
    0
 49
-6.35
 74
    0
  0
LTYPE
  5
43
330
5
100
AcDbSymbolTableRecord
100
AcDbLinetypeTableRecord
  2
BORDERTINY
 70
    0
  3
Border (.15x) __.__.__.__.__.__.__.__.__.__.__.
 72
   65
 73
    6
 40
6.6675
 49
1.905
 74
    0
 49
-0.9525
 74
    0
 49
1.905
 74
    0
 49
-0.9525
 74
    0
 49
0
 74
    0
 49
-0.9525
 74
    0
  0
LTYPE
  5
44
330
5
100
AcDbSymbolTableRecord
100
AcDbLinetypeTableRecord
  2
BORDER2
 70
    0
  3
Border (.5x) __.__.__.__.__.__.__.__.__.__.__.
 72
   65
 73
    6
 40
22.225
 49
6.35
 74
    0
 49
-3.175
 74
    0
 49
6.35
 74
    0
 49
-3.175
 74
    0
 49
0
 74
    0
 49
-3.175
 74
    0
  0
LTYPE
  5
45
330
5
100
AcDbSymbolTableRecord
100
AcDbLinetypeTableRecord
  2
BORDERX2
 70
    0
  3
Border (2x) ____  ____  .  ____  ____  .  ___
 72
   65
 73
    6
 40
88.89999999999999
 49
25.4
 74
    0
 49
-12.7
 74
    0
 49
25.4
 74
    0
 49
-12.7
 74
    0
 49
0
 74
    0
 49
-12.7
 74
    0
  0
LTYPE
  5
46
330
5
100
AcDbSymbolTableRecord
100
AcDbLinetypeTableRecord
  2
CENTER
 70
    0
  3
Center ____ _ ____ _ ____ _ ____ _ ____ _ ____
 72
   65
 73
    4
 40
50.8
 49
31.75
 74
    0
 49
-6.35
 74
    0
 49
6.35
 74
    0
 49
-6.35
 74
    0
  0
LTYPE
  5
47
330
5
100
AcDbSymbolTableRecord
100
AcDbLinetypeTableRecord
  2
CENTERTINY
 70
    0
  3
Center (.15x) ___ _ ___ _ ___ _ ___ _ ___ _ ___
 72
   65
 73
    4
 40
7.62
 49
4.7625
 74
    0
 49
-0.9525
 74
    0
 49
0.9525
 74
    0
 49
-0.9525
 74
    0
  0
LTYPE
  5
48
330
5
100
AcDbSymbolTableRecord
100
AcDbLinetypeTableRecord
  2
CENTER2
 70
    0
  3
Center (.5x) ___ _ ___ _ ___ _ ___ _ ___ _ ___
 72
   65
 73
    4
 40
28.575
 49
19.05
 74
    0
 49
-3.175
 74
    0
 49
3.175
 74
    0
 49
-3.175
 74
    0
  0
LTYPE
  5
49
330
5
100
AcDbSymbolTableRecord
100
AcDbLinetypeTableRecord
  2
CENTERX2
 70
    0
  3
Center (2x) ________  __  ________  __  _____
 72
   65
 73
    4
 40
101.6
 49
63.5
 74
    0
 49
-12.7
 74
    0
 49
12.7
 74
    0
 49
-12.7
 74
    0
  0
ENDTAB
  0
TABLE
  2
LAYER
  5
2
330
0
100
AcDbSymbolTable
 70
    1
  0
LAYER
  5
10
330
2
100
AcDbSymbolTableRecord
100
AcDbLayerTableRecord
  2
0
 70
    1
 62
    7
  6
CONTINUOUS
370
   25
390
F
  0
LAYER
  5
4A
330
2
100
AcDbSymbolTableRecord
100
AcDbLayerTableRecord
  2
0p5
 70
    1
 62
    3
  6
CONTINUOUS
370
    0
390
F
  0
LAYER
  5
4B
330
2
100
AcDbSymbolTableRecord
100
AcDbLayerTableRecord
  2
1
 70
    1
 62
    5
  6
CONTINUOUS
370
    0
390
F
  0
LAYER
  5
4C
330
2
100
AcDbSymbolTableRecord
100
AcDbLayerTableRecord
  2
2
 70
    0
 62
    1
  6
CONTINUOUS
370
    0
390
F
  0
LAYER
  5
4D
330
2
100
AcDbSymbolTableRecord
100
AcDbLayerTableRecord
  2
3
 70
    1
 62
    3
  6
CONTINUOUS
370
    0
390
F
  0
LAYER
  5
4E
330
2
100
AcDbSymbolTableRecord
100
AcDbLayerTableRecord
  2
ref
 70
    1
 62
    2
  6
CONTINUOUS
370
    0
390
F
  0
ENDTAB
  0
TABLE
  2
STYLE
  5
3
330
0
100
AcDbSymbolTable
 70
    3
  0
STYLE
  5
4F
330
2
100
AcDbSymbolTableRecord
100
AcDbTextStyleTableRecord
  2
Standard
 70
    0
 40
0
 41
1
 50
0
 71
    0
 42
1
  3
txt
  4

  0
ENDTAB
  0
TABLE
  2
VIEW
  5
6
330
0
100
AcDbSymbolTable
 70
    0
  0
ENDTAB
  0
TABLE
  2
UCS
  5
7
330
0
100
AcDbSymbolTable
 70
    0
  0
ENDTAB
  0
TABLE
  2
APPID
  5
9
330
0
100
AcDbSymbolTable
 70
    1
  0
APPID
  5
12
330
9
100
AcDbSymbolTableRecord
100
AcDbRegAppTableRecord
  2
ACAD
 70
    0
  0
APPID
  5
50
330
9
100
AcDbSymbolTableRecord
100
AcDbRegAppTableRecord
  2
LibreCad
 70
    0
  0
ENDTAB
  0
TABLE
  2
DIMSTYLE
  5
A
330
0
100
AcDbSymbolTable
 70
    1
100
AcDbDimStyleTable
 71
    1
  0
DIMSTYLE
105
51
330
A
100
AcDbSymbolTableRecord
100
AcDbDimStyleTableRecord
  2
Standard
 70
    0
 40
2.5
 41
2.5
 42
0.625
 43
0.38
 44
1.25
 45
0
 46
0
 47
0
 48
0
 49
1
140
2.5
141
0.09
142
0
143
25.4
144
1
145
0
146
1
147
0.625
148
0
 71
    0
 72
    0
 73
    0
 74
    1
 75
    0
 76
    0
 77
    0
 78
    8
 79
    0
170
    0
171
    2
172
    0
173
    0
174
    0
175
    0
176
    0
177
    0
178
    0
179
    0
271
    2
272
    4
273
    2
274
    2
275
    0
276
    0
277
    2
278
   44
279
    0
280
    0
281
    0
282
    0
283
    1
284
    0
285
    0
286
    0
288
    0
289
    3
340
STANDARD
341

371
   -2
372
   -2
  0
ENDTAB
  0
TABLE
  2
BLOCK_RECORD
  5
1
330
0
100
AcDbSymbolTable
 70
    2
  0
BLOCK_RECORD
  5
1F
330
1
100
AcDbSymbolTableRecord
100
AcDbBlockTableRecord
  2
*Model_Space
 70
    0
280
    1
281
    0
  0
BLOCK_RECORD
  5
1E
330
1
100
AcDbSymbolTableRecord
100
AcDbBlockTableRecord
  2
*Paper_Space
 70
    0
280
    1
281
    0
  0
ENDTAB
  0
ENDSEC
  0
SECTION
  2
BLOCKS
  0
BLOCK
  5
20
330
1F
100
AcDbEntity
  8
0
100
AcDbBlockBegin
  2
*Model_Space
 70
    0
 10
0
 20
0
 30
0
  3
*Model_Space
  1

  0
ENDBLK
  5
21
330
1F
100
AcDbEntity
  8
0
100
AcDbBlockEnd
  0
BLOCK
  5
1C
330
1B
100
AcDbEntity
  8
0
100
AcDbBlockBegin
  2
*Paper_Space
 70
    0
 10
0
 20
0
 30
0
  3
*Paper_Space
  1

  0
ENDBLK
  5
1D
330
1F
100
AcDbEntity
  8
0
100
AcDbBlockEnd
  0
ENDSEC
  0
SECTION
  2
ENTITIES
  0
CIRCLE
  5
52
100
AcDbEntity
  8
ref
  6
ByLayer
 62
  256
370
   -1
100
AcDbCircle
 10
19.17462744966443
 20
11.24665648489933
 40
7.5
  0
LWPOLYLINE
  5
53
100
AcDbEntity
  8
ref
  6
ByLayer
 62
  256
370
   -1
100
AcDbPolyline
 90
    4
 70
    1
 43
0
 10
30.29671380033557
 20
-2.152655729865778
 10
8.296713800335572
 20
-2.152655729865778
 10
8.296713800335572
 20
-24.15265572986578
 10
30.29671380033557
 20
-24.15265572986578
  0
LWPOLYLINE
  5
54
100
AcDbEntity
  8
ref
  6
ByLayer
 62
  256
370
   -1
100
AcDbPolyline
 90
    4
 70
    1
 43
0
 10
4.669086728187917
 20
-2.152655729865778
 10
-17.33091327181208
 20
-2.152655729865778
 10
-17.33091327181208
 20
-24.15265572986578
 10
4.669086728187917
 20
-24.15265572986578
  0
LWPOLYLINE
  5
55
100
AcDbEntity
  8
ref
  6
ByLayer
 62
  256
370
   -1
100
AcDbPolyline
 90
    4
 70
    1
 43
0
 10
-21.14291176174498
 20
-2.152655729865778
 10
-43.14291176174498
 20
-2.152655729865778
 10
-43.14291176174498
 20
-24.15265572986578
 10
-21.14291176174498
 20
-24.15265572986578
  0
CIRCLE
  5
56
100
AcDbEntity
  8
ref
  6
ByLayer
 62
  256
370
   -1
100
AcDbCircle
 10
-31.89625527684564
 20
10.75277036073826
 40
7.5
  0
CIRCLE
  5
57
100
AcDbEntity
  8
ref
  6
ByLayer
 62
  256
370
   -1
100
AcDbCircle
 10
-5.774742080536916
 20
10.87791364932886
 40
7.5
  0
CIRCLE
  5
58
100
AcDbEntity
  8
ref
  6
ByLayer
 62
  256
370
   -1
100
AcDbCircle
 10
19.17462744966443
 20
11.24665648489933
 40
8
  0
CIRCLE
  5
59
100
AcDbEntity
  8
ref
  6
ByLayer
 62
  256
370
   -1
100
AcDbCircle
 10
-5.774742080536916
 20
10.87791364932886
 40
8
  0
CIRCLE
  5
5A
100
AcDbEntity
  8
ref
  6
ByLayer
 62
  256
370
   -1
100
AcDbCircle
 10
-31.89625527684564
 20
10.75277036073826
 40
8
  0
LINE
  5
5B
100
AcDbEntity
  8
ref
  6
ByLayer
 62
  256
370
   -1
100
AcDbLine
 10
-21.14291176174498
 20
-1.652655729865778
 11
-43.14291176174498
 21
-1.652655729865778
  0
LINE
  5
5C
100
AcDbEntity
  8
ref
  6
ByLayer
 62
  256
370
   -1
100
AcDbLine
 10
-20.64291176174498
 20
-24.15265572986578
 11
-20.64291176174498
 21
-2.152655729865778
  0
LINE
  5
5D
100
AcDbEntity
  8
ref
  6
ByLayer
 62
  256
370
   -1
100
AcDbLine
 10
-43.14291176174498
 20
-24.65265572986578
 11
-21.14291176174498
 21
-24.65265572986578
  0
LINE
  5
5E
100
AcDbEntity
  8
ref
  6
ByLayer
 62
  256
370
   -1
100
AcDbLine
 10
-43.64291176174498
 20
-2.152655729865778
 11
-43.64291176174498
 21
-24.15265572986578
  0
LINE
  5
5F
100
AcDbEntity
  8
ref
  6
ByLayer
 62
  256
370
   -1
100
AcDbLine
 10
-17.83091327181208
 20
-2.152655729865778
 11
-17.83091327181208
 21
-24.15265572986578
  0
LINE
  5
60
100
AcDbEntity
  8
ref
  6
ByLayer
 62
  256
370
   -1
100
AcDbLine
 10
4.669086728187917
 20
-1.652655729865778
 11
-17.33091327181208
 21
-1.652655729865778
  0
LINE
  5
61
100
AcDbEntity
  8
ref
  6
ByLayer
 62
  256
370
   -1
100
AcDbLine
 10
-17.33091327181208
 20
-24.65265572986578
 11
4.669086728187917
 21
-24.65265572986578
  0
LINE
  5
62
100
AcDbEntity
  8
ref
  6
ByLayer
 62
  256
370
   -1
100
AcDbLine
 10
5.169086728187917
 20
-24.15265572986578
 11
5.169086728187917
 21
-2.152655729865778
  0
LINE
  5
63
100
AcDbEntity
  8
ref
  6
ByLayer
 62
  256
370
   -1
100
AcDbLine
 10
7.796713800335572
 20
-2.152655729865778
 11
7.796713800335572
 21
-24.15265572986578
  0
LINE
  5
64
100
AcDbEntity
  8
ref
  6
ByLayer
 62
  256
370
   -1
100
AcDbLine
 10
30.29671380033557
 20
-1.652655729865778
 11
8.296713800335572
 21
-1.652655729865778
  0
LINE
  5
65
100
AcDbEntity
  8
ref
  6
ByLayer
 62
  256
370
   -1
100
AcDbLine
 10
8.296713800335572
 20
-24.65265572986578
 11
30.29671380033557
 21
-24.65265572986578
  0
LINE
  5
66
100
AcDbEntity
  8
ref
  6
ByLayer
 62
  256
370
   -1
100
AcDbLine
 10
30.79671380033557
 20
-24.15265572986578
 11
30.79671380033557
 21
-2.152655729865778
  0
CIRCLE
  5
67
100
AcDbEntity
  8
1
  6
ByLayer
 62
  256
370
   -1
100
AcDbCircle
 10
-37.6917225926528
 20
2.574390860093624
 40
2
  0
CIRCLE
  5
68
100
AcDbEntity
  8
1
  6
ByLayer
 62
  256
370
   -1
100
AcDbCircle
 10
-21.91532732182264
 20
10.62761355064291
 40
2
  0
CIRCLE
  5
69
100
AcDbEntity
  8
1
  6
ByLayer
 62
  256
370
   -1
100
AcDbCircle
 10
-13.13599438868285
 20
4.026611345274643
 40
2
  0
CIRCLE
  5
6A
100
AcDbEntity
  8
1
  6
ByLayer
 62
  256
370
   -1
100
AcDbCircle
 10
4.269174909901473
 20
11.35212419223801
 40
2
  0
CIRCLE
  5
6B
100
AcDbEntity
  8
1
  6
ByLayer
 62
  256
370
   -1
100
AcDbCircle
 10
29.24243976978143
 20
11.41973381528711
 40
2
  0
CIRCLE
  5
6C
100
AcDbEntity
  8
1
  6
ByLayer
 62
  256
370
   -1
100
AcDbCircle
 10
6.500789067349976
 20
-5.724575447367889
 40
1.5
  0
CIRCLE
  5
6D
100
AcDbEntity
  8
1
  6
ByLayer
 62
  256
370
   -1
100
AcDbCircle
 10
6.500789067349976
 20
-20.5696609295253
 40
1.5
  0
CIRCLE
  5
6E
100
AcDbEntity
  8
1
  6
ByLayer
 62
  256
370
   -1
100
AcDbCircle
 10
12.41941791971339
 20
-0.2910801074932825
 40
1.5
  0
CIRCLE
  5
6F
100
AcDbEntity
  8
1
  6
ByLayer
 62
  256
370
   -1
100
AcDbCircle
 10
26.10018297189767
 20
-0.2910801074932825
 40
1.5
  0
CIRCLE
  5
70
100
AcDbEntity
  8
1
  6
ByLayer
 62
  256
370
   -1
100
AcDbCircle
 10
18.8231802845656
 20
-26.10018297189767
 40
1.5
  0
CIRCLE
  5
71
100
AcDbEntity
  8
1
  6
ByLayer
 62
  256
370
   -1
100
AcDbCircle
 10
32.2128652292566
 20
-12.61347132470891
 40
1.5
  0
CIRCLE
  5
72
100
AcDbEntity
  8
1
  6
ByLayer
 62
  256
370
   -1
100
AcDbCircle
 10
-19.30831379705441
 20
-13.19563153969547
 40
1.5
  0
CIRCLE
  5
73
100
AcDbEntity
  8
1
  6
ByLayer
 62
  256
370
   -1
100
AcDbCircle
 10
-6.209708959856694
 20
-0.1940534049955217
 40
1.5
  0
CIRCLE
  5
74
100
AcDbEntity
  8
1
  6
ByLayer
 62
  256
370
   -1
100
AcDbCircle
 10
-15.42724569714397
 20
-26.10018297189767
 40
1.5
  0
CIRCLE
  5
75
100
AcDbEntity
  8
1
  6
ByLayer
 62
  256
370
   -1
100
AcDbCircle
 10
0.7762136199820867
 20
-26.10018297189767
 40
1.5
  0
CIRCLE
  5
76
100
AcDbEntity
  8
1
  6
ByLayer
 62
  256
370
   -1
100
AcDbCircle
 10
-45.11741666145882
 20
-4.075121504905958
 40
1.5
  0
CIRCLE
  5
77
100
AcDbEntity
  8
1
  6
ByLayer
 62
  256
370
   -1
100
AcDbCircle
 10
-45.21444336395658
 20
-20.47263422702755
 40
1.5
  0
CIRCLE
  5
78
100
AcDbEntity
  8
1
  6
ByLayer
 62
  256
370
   -1
100
AcDbCircle
 10
-31.5336783117723
 20
-0.1940534049955218
 40
1.5
  0
CIRCLE
  5
79
100
AcDbEntity
  8
1
  6
ByLayer
 62
  256
370
   -1
100
AcDbCircle
 10
-40.75121504905958
 20
-26.10018297189768
 40
1.5
  0
CIRCLE
  5
7A
100
AcDbEntity
  8
1
  6
ByLayer
 62
  256
370
   -1
100
AcDbCircle
 10
-25.3239693519156
 20
-26.10018297189768
 40
1.5
  0
CIRCLE
  5
7B
100
AcDbEntity
  8
0
  6
ByLayer
 62
  256
370
   -1
100
AcDbCircle
 10
-31.89625527684564
 20
10.75277036073826
 40
6.5
  0
CIRCLE
  5
7C
100
AcDbEntity
  8
0
  6
ByLayer
 62
  256
370
   -1
100
AcDbCircle
 10
-5.774742080536916
 20
10.87791364932886
 40
6.5
  0
CIRCLE
  5
7D
100
AcDbEntity
  8
0
  6
ByLayer
 62
  256
370
   -1
100
AcDbCircle
 10
19.17462744966443
 20
11.24665648489933
 40
6.5
  0
CIRCLE
  5
7E
100
AcDbEntity
  8
2
  6
ByLayer
 62
  256
370
   -1
100
AcDbCircle
 10
-21.91532732182264
 20
10.62761355064291
 40
2.5
  0
CIRCLE
  5
7F
100
AcDbEntity
  8
2
  6
ByLayer
 62
  256
370
   -1
100
AcDbCircle
 10
-37.6917225926528
 20
2.574390860093624
 40
2.5
  0
CIRCLE
  5
80
100
AcDbEntity
  8
2
  6
ByLayer
 62
  256
370
   -1
100
AcDbCircle
 10
-31.5336783117723
 20
-0.1940534049955218
 40
2
  0
CIRCLE
  5
81
100
AcDbEntity
  8
2
  6
ByLayer
 62
  256
370
   -1
100
AcDbCircle
 10
-13.13599438868285
 20
4.026611345274643
 40
2.5
  0
CIRCLE
  5
82
100
AcDbEntity
  8
2
  6
ByLayer
 62
  256
370
   -1
100
AcDbCircle
 10
-6.209708959856694
 20
-0.1940534049955217
 40
2
  0
CIRCLE
  5
83
100
AcDbEntity
  8
2
  6
ByLayer
 62
  256
370
   -1
100
AcDbCircle
 10
4.269174909901473
 20
11.35212419223801
 40
2.5
  0
CIRCLE
  5
84
100
AcDbEntity
  8
2
  6
ByLayer
 62
  256
370
   -1
100
AcDbCircle
 10
29.24243976978143
 20
11.41973381528711
 40
2.5
  0
CIRCLE
  5
85
100
AcDbEntity
  8
2
  6
ByLayer
 62
  256
370
   -1
100
AcDbCircle
 10
-45.11741666145882
 20
-4.075121504905958
 40
2
  0
CIRCLE
  5
86
100
AcDbEntity
  8
2
  6
ByLayer
 62
  256
370
   -1
100
AcDbCircle
 10
-45.21444336395658
 20
-20.47263422702755
 40
2
  0
CIRCLE
  5
87
100
AcDbEntity
  8
2
  6
ByLayer
 62
  256
370
   -1
100
AcDbCircle
 10
-40.75121504905958
 20
-26.10018297189768
 40
2
  0
CIRCLE
  5
88
100
AcDbEntity
  8
2
  6
ByLayer
 62
  256
370
   -1
100
AcDbCircle
 10
-25.3239693519156
 20
-26.10018297189768
 40
2
  0
CIRCLE
  5
89
100
AcDbEntity
  8
2
  6
ByLayer
 62
  256
370
   -1
100
AcDbCircle
 10
-15.42724569714397
 20
-26.10018297189767
 40
2
  0
CIRCLE
  5
8A
100
AcDbEntity
  8
2
  6
ByLayer
 62
  256
370
   -1
100
AcDbCircle
 10
0.7762136199820867
 20
-26.10018297189767
 40
2
  0
CIRCLE
  5
8B
100
AcDbEntity
  8
2
  6
ByLayer
 62
  256
370
   -1
100
AcDbCircle
 10
6.500789067349976
 20
-20.5696609295253
 40
2
  0
CIRCLE
  5
8C
100
AcDbEntity
  8
2
  6
ByLayer
 62
  256
370
   -1
100
AcDbCircle
 10
6.500789067349976
 20
-5.724575447367889
 40
2
  0
CIRCLE
  5
8D
100
AcDbEntity
  8
2
  6
ByLayer
 62
  256
370
   -1
100
AcDbCircle
 10
12.41941791971339
 20
-0.2910801074932825
 40
2
  0
CIRCLE
  5
8E
100
AcDbEntity
  8
2
  6
ByLayer
 62
  256
370
   -1
100
AcDbCircle
 10
26.10018297189767
 20
-0.2910801074932825
 40
2
  0
CIRCLE
  5
8F
100
AcDbEntity
  8
2
  6
ByLayer
 62
  256
370
   -1
100
AcDbCircle
 10
32.2128652292566
 20
-12.61347132470891
 40
2
  0
CIRCLE
  5
90
100
AcDbEntity
  8
2
  6
ByLayer
 62
  256
370
   -1
100
AcDbCircle
 10
18.8231802845656
 20
-26.10018297189767
 40
2
  0
CIRCLE
  5
91
100
AcDbEntity
  8
2
  6
ByLayer
 62
  256
370
   -1
100
AcDbCircle
 10
-19.30831379705441
 20
-13.19563153969547
 40
2
  0
CIRCLE
  5
92
100
AcDbEntity
  8
2
  6
ByLayer
 62
  256
370
   -1
100
AcDbCircle
 10
19.17462744966443
 20
11.24665648489933
 40
6.5
  0
CIRCLE
  5
93
100
AcDbEntity
  8
2
  6
ByLayer
 62
  256
370
   -1
100
AcDbCircle
 10
-5.774742080536916
 20
10.87791364932886
 40
6.5
  0
CIRCLE
  5
94
100
AcDbEntity
  8
2
  6
ByLayer
 62
  256
370
   -1
100
AcDbCircle
 10
-31.89625527684564
 20
10.75277036073826
 40
6.5
  0
LINE
  5
95
100
AcDbEntity
  8
0
  6
ByLayer
 62
  256
370
   -1
100
AcDbLine
 10
-42.14291176174498
 20
-3.152655729865778
 11
-42.14291176174498
 21
-23.15265572986578
  0
LINE
  5
96
100
AcDbEntity
  8
0
  6
ByLayer
 62
  256
370
   -1
100
AcDbLine
 10
-42.14291176174498
 20
-23.15265572986578
 11
-22.14291176174498
 21
-23.15265572986578
  0
LINE
  5
97
100
AcDbEntity
  8
0
  6
ByLayer
 62
  256
370
   -1
100
AcDbLine
 10
-22.14291176174498
 20
-3.152655729865778
 11
-42.14291176174498
 21
-3.152655729865778
  0
LINE
  5
98
100
AcDbEntity
  8
0
  6
ByLayer
 62
  256
370
   -1
100
AcDbLine
 10
-22.14291176174498
 20
-23.15265572986578
 11
-22.14291176174498
 21
-3.152655729865778
  0
LINE
  5
99
100
AcDbEntity
  8
0
  6
ByLayer
 62
  256
370
   -1
100
AcDbLine
 10
-16.33091327181208
 20
-3.152655729865778
 11
-16.33091327181208
 21
-23.15265572986578
  0
LINE
  5
9A
100
AcDbEntity
  8
0
  6
ByLayer
 62
  256
370
   -1
100
AcDbLine
 10
-16.33091327181208
 20
-23.15265572986578
 11
3.669086728187917
 21
-23.15265572986578
  0
LINE
  5
9B
100
AcDbEntity
  8
0
  6
ByLayer
 62
  256
370
   -1
100
AcDbLine
 10
3.669086728187917
 20
-3.152655729865778
 11
-16.33091327181208
 21
-3.152655729865778
  0
LINE
  5
9C
100
AcDbEntity
  8
0
  6
ByLayer
 62
  256
370
   -1
100
AcDbLine
 10
3.669086728187917
 20
-23.15265572986578
 11
3.669086728187917
 21
-3.152655729865778
  0
LINE
  5
9D
100
AcDbEntity
  8
0
  6
ByLayer
 62
  256
370
   -1
100
AcDbLine
 10
9.296713800335572
 20
-3.152655729865778
 11
9.296713800335572
 21
-23.15265572986578
  0
LINE
  5
9E
100
AcDbEntity
  8
0
  6
ByLayer
 62
  256
370
   -1
100
AcDbLine
 10
9.296713800335572
 20
-23.15265572986578
 11
29.29671380033557
 21
-23.15265572986578
  0
LINE
  5
9F
100
AcDbEntity
  8
0
  6
ByLayer
 62
  256
370
   -1
100
AcDbLine
 10
29.29671380033557
 20
-3.152655729865778
 11
9.296713800335572
 21
-3.152655729865778
  0
LINE
  5
A0
100
AcDbEntity
  8
0
  6
ByLayer
 62
  256
370
   -1
100
AcDbLine
 10
29.29671380033557
 20
-23.15265572986578
 11
29.29671380033557
 21
-3.152655729865778
  0
LINE
  5
A1
100
AcDbEntity
  8
2
  6
ByLayer
 62
  256
370
   -1
100
AcDbLine
 10
29.29671380033557
 20
-23.15265572986578
 11
29.29671380033557
 21
-3.152655729865778
  0
LINE
  5
A2
100
AcDbEntity
  8
2
  6
ByLayer
 62
  256
370
   -1
100
AcDbLine
 10
9.296713800335572
 20
-23.15265572986578
 11
29.29671380033557
 21
-23.15265572986578
  0
LINE
  5
A3
100
AcDbEntity
  8
2
  6
ByLayer
 62
  256
370
   -1
100
AcDbLine
 10
29.29671380033557
 20
-3.152655729865778
 11
9.296713800335572
 21
-3.152655729865778
  0
LINE
  5
A4
100
AcDbEntity
  8
2
  6
ByLayer
 62
  256
370
   -1
100
AcDbLine
 10
9.296713800335572
 20
-3.152655729865778
 11
9.296713800335572
 21
-23.15265572986578
  0
LINE
  5
A5
100
AcDbEntity
  8
2
  6
ByLayer
 62
  256
370
   -1
100
AcDbLine
 10
3.669086728187917
 20
-23.15265572986578
 11
3.669086728187917
 21
-3.152655729865778
  0
LINE
  5
A6
100
AcDbEntity
  8
2
  6
ByLayer
 62
  256
370
   -1
100
AcDbLine
 10
-16.33091327181208
 20
-23.15265572986578
 11
3.669086728187917
 21
-23.15265572986578
  0
LINE
  5
A7
100
AcDbEntity
  8
2
  6
ByLayer
 62
  256
370
   -1
100
AcDbLine
 10
3.669086728187917
 20
-3.152655729865778
 11
-16.33091327181208
 21
-3.152655729865778
  0
LINE
  5
A8
100
AcDbEntity
  8
2
  6
ByLayer
 62
  256
370
   -1
100
AcDbLine
 10
-16.33091327181208
 20
-3.152655729865778
 11
-16.33091327181208
 21
-23.15265572986578
  0
LINE
  5
A9
100
AcDbEntity
  8
2
  6
ByLayer
 62
  256
370
   -1
100
AcDbLine
 10
-22.14291176174498
 20
-23.15265572986578
 11
-22.14291176174498
 21
-3.152655729865778
  0
LINE
  5
AA
100
AcDbEntity
  8
2
  6
ByLayer
 62
  256
370
   -1
100
AcDbLine
 10
-42.14291176174498
 20
-23.15265572986578
 11
-22.14291176174498
 21
-23.15265572986578
  0
LINE
  5
AB
100
AcDbEntity
  8
2
  6
ByLayer
 62
  256
370
   -1
100
AcDbLine
 10
-22.14291176174498
 20
-3.152655729865778
 11
-42.14291176174498
 21
-3.152655729865778
  0
LINE
  5
AC
100
AcDbEntity
  8
2
  6
ByLayer
 62
  256
370
   -1
100
AcDbLine
 10
-42.14291176174498
 20
-3.152655729865778
 11
-42.14291176174498
 21
-23.15265572986578
  0
CIRCLE
  5
AD
100
AcDbEntity
  8
0p5
  6
ByLayer
 62
  256
370
   -1
100
AcDbCircle
 10
31.94630872483229
 20
19.1107382550336
 40
1.5
  0
CIRCLE
  5
AE
100
AcDbEntity
  8
0p5
  6
ByLayer
 62
  256
370
   -1
100
AcDbCircle
 10
32.51677852349001
 20
3.850671140939606
 40
1.5
  0
CIRCLE
  5
AF
100
AcDbEntity
  8
0p5
  6
ByLayer
 62
  256
370
   -1
100
AcDbCircle
 10
32.51677852349001
 20
-6.703020134228204
 40
1.5
  0
CIRCLE
  5
B0
100
AcDbEntity
  8
0p5
  6
ByLayer
 62
  256
370
   -1
100
AcDbCircle
 10
32.65939597315444
 20
-26.81208053691282
 40
1.5
  0
CIRCLE
  5
B1
100
AcDbEntity
  8
0p5
  6
ByLayer
 62
  256
370
   -1
100
AcDbCircle
 10
8.271812080536932
 20
-26.66946308724838
 40
1.5
  0
CIRCLE
  5
B2
100
AcDbEntity
  8
0p5
  6
ByLayer
 62
  256
370
   -1
100
AcDbCircle
 10
6.560402684563774
 20
-12.55033557046983
 40
1.5
  0
CIRCLE
  5
B3
100
AcDbEntity
  8
0p5
  6
ByLayer
 62
  256
370
   -1
100
AcDbCircle
 10
-7.558724832214783
 20
-26.95469798657725
 40
1.5
  0
CIRCLE
  5
B4
100
AcDbEntity
  8
0p5
  6
ByLayer
 62
  256
370
   -1
100
AcDbCircle
 10
-19.53859060402689
 20
-18.25503355704702
 40
1.5
  0
CIRCLE
  5
B5
100
AcDbEntity
  8
0p5
  6
ByLayer
 62
  256
370
   -1
100
AcDbCircle
 10
-33.65771812080545
 20
-25.95637583892624
 40
1.5
  0
CIRCLE
  5
B6
100
AcDbEntity
  8
0p5
  6
ByLayer
 62
  256
370
   -1
100
AcDbCircle
 10
-46.35067114093971
 20
-26.38422818791953
 40
1.5
  0
CIRCLE
  5
B7
100
AcDbEntity
  8
0p5
  6
ByLayer
 62
  256
370
   -1
100
AcDbCircle
 10
-46.35067114093971
 20
-12.4077181208054
 40
1.5
  0
CIRCLE
  5
B8
100
AcDbEntity
  8
0p5
  6
ByLayer
 62
  256
370
   -1
100
AcDbCircle
 10
-45.3523489932887
 20
3.993288590604037
 40
1.5
  0
CIRCLE
  5
B9
100
AcDbEntity
  8
0p5
  6
ByLayer
 62
  256
370
   -1
100
AcDbCircle
 10
-45.92281879194642
 20
16.6862416107383
 40
1.5
  0
CIRCLE
  5
BA
100
AcDbEntity
  8
0p5
  6
ByLayer
 62
  256
370
   -1
100
AcDbCircle
 10
-22.67617449664435
 20
18.39765100671145
 40
1.5
  0
CIRCLE
  5
BB
100
AcDbEntity
  8
0p5
  6
ByLayer
 62
  256
370
   -1
100
AcDbCircle
 10
2.567114093959738
 20
18.25503355704702
 40
1.5
  0
CIRCLE
  5
BC
100
AcDbEntity
  8
0p5
  6
ByLayer
 62
  256
370
   -1
100
AcDbCircle
 10
-24.8154362416108
 20
3.708053691275177
 40
1.5
  0
CIRCLE
  5
BD
100
AcDbEntity
  8
0p5
  6
ByLayer
 62
  256
370
   -1
100
AcDbCircle
 10
0.4278523489932896
 20
2.139261744966448
 40
1.5
  0
CIRCLE
  5
BE
100
AcDbEntity
  8
0p5
  6
ByLayer
 62
  256
370
   -1
100
AcDbCircle
 10
-19.25335570469803
 20
-0.9983221476510091
 40
1.5
  0
CIRCLE
  5
BF
100
AcDbEntity
  8
0p5
  6
ByLayer
 62
  256
370
   -1
100
AcDbCircle
 10
19.39597315436246
 20
0.5704697986577195
 40
1.5
  0
CIRCLE
  5
C0
100
AcDbEntity
  8
0p5
  6
ByLayer
 62
  256
370
   -1
100
AcDbCircle
 10
-9.840604026845661
 20
19.68120805369132
 40
1.5
  0
CIRCLE
  5
C1
100
AcDbEntity
  8
0p5
  6
ByLayer
 62
  256
370
   -1
100
AcDbCircle
 10
24.67281879194637
 20
-27.09731543624168
 40
1.5
  0
CIRCLE
  5
C2
100
AcDbEntity
  8
0p5
  6
ByLayer
 62
  256
370
   -1
100
AcDbCircle
 10
9.127516778523512
 20
10.69630872483224
 40
1.5
  0
CIRCLE
  5
C3
100
AcDbEntity
  8
0
  6
ByLayer
 62
  256
370
   -1
100
AcDbCircle
 10
-18.39765100671145
 20
6.703020134228204
 40
1
  0
CIRCLE
  5
C4
100
AcDbEntity
  8
0
  6
ByLayer
 62
  256
370
   -1
100
AcDbCircle
 10
-20.67953020134233
 20
3.565436241610747
 40
1
  0
CIRCLE
  5
C5
100
AcDbEntity
  8
0
  6
ByLayer
 62
  256
370
   -1
100
AcDbCircle
 10
6.417785234899345
 20
5.847315436241625
 40
1
  0
CIRCLE
  5
C6
100
AcDbEntity
  8
0
  6
ByLayer
 62
  256
370
   -1
100
AcDbCircle
 10
7.416107382550353
 20
2.852348993288598
 40
1
  0
CIRCLE
  5
C7
100
AcDbEntity
  8
0
  6
ByLayer
 62
  256
370
   -1
100
AcDbCircle
 10
-19.25335570469803
 20
-7.843959731543643
 40
1
  0
CIRCLE
  5
C8
100
AcDbEntity
  8
0
  6
ByLayer
 62
  256
370
   -1
100
AcDbCircle
 10
-19.25335570469803
 20
-21.39261744966448
 40
1
  0
CIRCLE
  5
C9
100
AcDbEntity
  8
0
  6
ByLayer
 62
  256
370
   -1
100
AcDbCircle
 10
6.560402684563774
 20
-9.270134228187942
 40
1
  0
CIRCLE
  5
CA
100
AcDbEntity
  8
0
  6
ByLayer
 62
  256
370
   -1
100
AcDbCircle
 10
6.560402684563774
 20
-16.25838926174501
 40
1
  0
CIRCLE
  5
CB
100
AcDbEntity
  8
2
  6
ByLayer
 62
  256
370
   -1
100
AcDbCircle
 10
6.417785234899345
 20
5.847315436241625
 40
1
  0
CIRCLE
  5
CC
100
AcDbEntity
  8
2
  6
ByLayer
 62
  256
370
   -1
100
AcDbCircle
 10
7.416107382550353
 20
2.852348993288598
 40
1
  0
CIRCLE
  5
CD
100
AcDbEntity
  8
2
  6
ByLayer
 62
  256
370
   -1
100
AcDbCircle
 10
-18.39765100671145
 20
6.703020134228204
 40
1
  0
CIRCLE
  5
CE
100
AcDbEntity
  8
2
  6
ByLayer
 62
  256
370
   -1
100
AcDbCircle
 10
-20.67953020134233
 20
3.565436241610747
 40
1
  0
CIRCLE
  5
CF
100
AcDbEntity
  8
2
  6
ByLayer
 62
  256
370
   -1
100
AcDbCircle
 10
-19.25335570469803
 20
-7.843959731543643
 40
1
  0
CIRCLE
  5
D0
100
AcDbEntity
  8
2
  6
ByLayer
 62
  256
370
   -1
100
AcDbCircle
 10
-19.25335570469803
 20
-21.39261744966448
 40
1
  0
CIRCLE
  5
D1
100
AcDbEntity
  8
2
  6
ByLayer
 62
  256
370
   -1
100
AcDbCircle
 10
6.560402684563774
 20
-9.270134228187942
 40
1
  0
CIRCLE
  5
D2
100
AcDbEntity
  8
2
  6
ByLayer
 62
  256
370
   -1
100
AcDbCircle
 10
6.560402684563774
 20
-16.25838926174501
 40
1
  0
CIRCLE
  5
D3
100
AcDbEntity
  8
1
  6
ByLayer
 62
  256
370
   -1
100
AcDbCircle
 10
-37.62048750289046
 20
19.15858159869422
 40
2
  0
CIRCLE
  5
D4
100
AcDbEntity
  8
2
  6
ByLayer
 62
  256
370
   -1
100
AcDbCircle
 10
-37.62048750289046
 20
19.15858159869422
 40
2.5
  0
CIRCLE
  5
D5
100
AcDbEntity
  8
1
  6
ByLayer
 62
  256
370
   -1
100
AcDbCircle
 10
-13.40003447689762
 20
17.55866586627964
 40
2
  0
CIRCLE
  5
D6
100
AcDbEntity
  8
2
  6
ByLayer
 62
  256
370
   -1
100
AcDbCircle
 10
-13.40003447689762
 20
17.55866586627964
 40
2.5
  0
CIRCLE
  5
D7
100
AcDbEntity
  8
1
  6
ByLayer
 62
  256
370
   -1
100
AcDbCircle
 10
11.79508101942477
 20
4.287133487791632
 40
2
  0
CIRCLE
  5
D8
100
AcDbEntity
  8
2
  6
ByLayer
 62
  256
370
   -1
100
AcDbCircle
 10
11.79508101942477
 20
4.287133487791632
 40
2.5
  0
CIRCLE
  5
D9
100
AcDbEntity
  8
0p5
  6
ByLayer
 62
  256
370
   -1
100
AcDbCircle
 10
16.52451774829846
 20
20.57756558800079
 40
1.5
  0
CIRCLE
  5
DA
100
AcDbEntity
  8
1
  6
ByLayer
 62
  256
370
   -1
100
AcDbCircle
 10
12.56099537133547
 20
18.94560185349959
 40
2
  0
CIRCLE
  5
DB
100
AcDbEntity
  8
2
  6
ByLayer
 62
  256
370
   -1
100
AcDbCircle
 10
12.56099537133547
 20
18.94560185349959
 40
2.5
  0
ARC
  5
DC
100
AcDbEntity
  8
2
  6
ByLayer
 62
  256
370
   -1
100
AcDbCircle
 10
30.93959731543633
 20
17.24832214765106
 40
5
100
AcDbArc
 50
0
 51
90
  0
LINE
  5
DD
100
AcDbEntity
  8
2
  6
ByLayer
 62
  256
370
   -1
100
AcDbLine
 10
35.93959731543633
 20
17.24832214765106
 11
35.93959731543633
 21
-25.37751677852356
  0
ARC
  5
DE
100
AcDbEntity
  8
2
  6
ByLayer
 62
  256
370
   -1
100
AcDbCircle
 10
30.93959731543633
 20
-25.37751677852356
 40
5
100
AcDbArc
 50
270
 51
0
  0
LINE
  5
DF
100
AcDbEntity
  8
2
  6
ByLayer
 62
  256
370
   -1
100
AcDbLine
 10
-44.34563758389274
 20
22.24832214765106
 11
30.93959731543633
 21
22.24832214765106
  0
ARC
  5
E0
100
AcDbEntity
  8
2
  6
ByLayer
 62
  256
370
   -1
100
AcDbCircle
 10
-44.34563758389274
 20
17.24832214765106
 40
5
100
AcDbArc
 50
90
 51
179.9999999999999
  0
LINE
  5
E1
100
AcDbEntity
  8
2
  6
ByLayer
 62
  256
370
   -1
100
AcDbLine
 10
30.93959731543633
 20
-30.37751677852356
 11
-44.34563758389274
 21
-30.37751677852356
  0
LINE
  5
E2
100
AcDbEntity
  8
2
  6
ByLayer
 62
  256
370
   -1
100
AcDbLine
 10
-49.34563758389274
 20
-25.37751677852356
 11
-49.34563758389274
 21
17.24832214765107
  0
ARC
  5
E3
100
AcDbEntity
  8
2
  6
ByLayer
 62
  256
370
   -1
100
AcDbCircle
 10
-44.34563758389274
 20
-25.37751677852356
 40
5
100
AcDbArc
 50
180
 51
270
  0
LINE
  5
E4
100
AcDbEntity
  8
0
  6
ByLayer
 62
  256
370
   -1
100
AcDbLine
 10
-44.34563758389274
 20
22.24832214765106
 11
30.93959731543633
 21
22.24832214765106
  0
ARC
  5
E5
100
AcDbEntity
  8
0
  6
ByLayer
 62
  256
370
   -1
100
AcDbCircle
 10
30.93959731543633
 20
17.24832214765106
 40
5
100
AcDbArc
 50
0
 51
90
  0
LINE
  5
E6
100
AcDbEntity
  8
0
  6
ByLayer
 62
  256
370
   -1
100
AcDbLine
 10
35.93959731543633
 20
17.24832214765106
 11
35.93959731543633
 21
-25.37751677852356
  0
ARC
  5
E7
100
AcDbEntity
  8
0
  6
ByLayer
 62
  256
370
   -1
100
AcDbCircle
 10
30.93959731543633
 20
-25.37751677852356
 40
5
100
AcDbArc
 50
270
 51
0
  0
LINE
  5
E8
100
AcDbEntity
  8
0
  6
ByLayer
 62
  256
370
   -1
100
AcDbLine
 10
30.93959731543633
 20
-30.37751677852356
 11
-44.34563758389274
 21
-30.37751677852356
  0
ARC
  5
E9
100
AcDbEntity
  8
0
  6
ByLayer
 62
  256
370
   -1
100
AcDbCircle
 10
-44.34563758389274
 20
-25.37751677852356
 40
5
100
AcDbArc
 50
180
 51
270
  0
LINE
  5
EA
100
AcDbEntity
  8
0
  6
ByLayer
 62
  256
370
   -1
100
AcDbLine
 10
-49.34563758389274
 20
-25.37751677852356
 11
-49.34563758389274
 21
17.24832214765107
  0
ARC
  5
EB
100
AcDbEntity
  8
0
  6
ByLayer
 62
  256
370
   -1
100
AcDbCircle
 10
-44.34563758389274
 20
17.24832214765106
 40
5
100
AcDbArc
 50
90
 51
179.9999999999999
  0
ENDSEC
  0
SECTION
  2
OBJECTS
  0
DICTIONARY
  5
C
330
0
100
AcDbDictionary
281
    1
  3
ACAD_GROUP
350
D
  0
DICTIONARY
  5
D
330
C
100
AcDbDictionary
281
    1
  0
ENDSEC
  0
EOF
