999
dxflib 2.2.0.0
  0
SECTION
  2
HEADER
  9
$ACADVER
  1
AC1015
  9
$HANDSEED
  5
FFFF
  9
$DIMASZ
 40
2.5
  9
$PLIMMIN
 10
0.0
 20
0.0
  9
$DIMEXE
 40
1.25
  9
$DIMGAP
 40
0.625
  9
$PLIMMAX
 10
210.0
 20
297.0
  9
$PSVPSCALE
 40
1.0
  9
$PINSBASE
 10
102.7532139543880589
 20
160.6590549212441488
 30
0.0
  9
$INSUNITS
 70
4
  9
$DIMSTYLE
  2
Standard
  9
$DIMEXO
 40
0.625
  9
$DIMTXT
 40
2.5
  0
ENDSEC
  0
SECTION
  2
TABLES
  0
TABLE
  2
VPORT
  5
8
100
AcDbSymbolTable
 70
1
  0
VPORT
  5
30
100
AcDbSymbolTableRecord
100
AcDbViewportTableRecord
  2
*Active
 70
0
 10
0.0
 20
0.0
 11
1.0
 21
1.0
 12
286.3055555555554861
 22
148.5
 13
0.0
 23
0.0
 14
10.0
 24
10.0
 15
10.0
 25
10.0
 16
0.0
 26
0.0
 36
1.0
 17
0.0
 27
0.0
 37
0.0
 40
297.0
 41
1.92798353909465
 42
50.0
 43
0.0
 44
0.0
 50
0.0
 51
0.0
 71
0
 72
100
 73
1
 74
3
 75
1
 76
1
 77
0
 78
0
281
0
 65
1
110
0.0
120
0.0
130
0.0
111
1.0
121
0.0
131
0.0
112
0.0
122
1.0
132
0.0
 79
0
146
0.0
  0
ENDTAB
  0
TABLE
  2
LTYPE
  5
5
100
AcDbSymbolTable
 70
21
  0
LTYPE
  5
14
100
AcDbSymbolTableRecord
100
AcDbLinetypeTableRecord
  2
ByBlock
 70
0
  3

 72
65
 73
0
 40
0.0
  0
LTYPE
  5
15
100
AcDbSymbolTableRecord
100
AcDbLinetypeTableRecord
  2
ByLayer
 70
0
  3

 72
65
 73
0
 40
0.0
  0
LTYPE
  5
16
100
AcDbSymbolTableRecord
100
AcDbLinetypeTableRecord
  2
CONTINUOUS
 70
0
  3
Solid line
 72
65
 73
0
 40
0.0
  0
LTYPE
  5
31
100
AcDbSymbolTableRecord
100
AcDbLinetypeTableRecord
  2
DOT
 70
0
  3
Dot . . . . . . . . . . . . . . . . . . . . . .
 72
65
 73
2
 40
6.3499999999999996
 49
0.0
 74
0
 49
-6.3499999999999996
 74
0
  0
LTYPE
  5
32
100
AcDbSymbolTableRecord
100
AcDbLinetypeTableRecord
  2
DOT2
 70
0
  3
Dot (.5x) .....................................
 72
65
 73
2
 40
3.1749999999999998
 49
0.0
 74
0
 49
-3.1749999999999998
 74
0
  0
LTYPE
  5
33
100
AcDbSymbolTableRecord
100
AcDbLinetypeTableRecord
  2
DOTX2
 70
0
  3
Dot (2x) .  .  .  .  .  .  .  .  .  .  .  .  .
 72
65
 73
2
 40
12.6999999999999993
 49
0.0
 74
0
 49
-12.6999999999999993
 74
0
  0
LTYPE
  5
34
100
AcDbSymbolTableRecord
100
AcDbLinetypeTableRecord
  2
DASHED
 70
0
  3
Dashed __ __ __ __ __ __ __ __ __ __ __ __ __ _
 72
65
 73
2
 40
19.0500000000000007
 49
12.6999999999999993
 74
0
 49
-6.3499999999999996
 74
0
  0
LTYPE
  5
35
100
AcDbSymbolTableRecord
100
AcDbLinetypeTableRecord
  2
DASHED2
 70
0
  3
Dashed (.5x) _ _ _ _ _ _ _ _ _ _ _ _ _ _ _ _ _
 72
65
 73
2
 40
9.5250000000000004
 49
6.3499999999999996
 74
0
 49
-3.1749999999999998
 74
0
  0
LTYPE
  5
36
100
AcDbSymbolTableRecord
100
AcDbLinetypeTableRecord
  2
DASHEDX2
 70
0
  3
Dashed (2x) ____  ____  ____  ____  ____  ___
 72
65
 73
2
 40
38.1000000000000014
 49
25.3999999999999986
 74
0
 49
-12.6999999999999993
 74
0
  0
LTYPE
  5
37
100
AcDbSymbolTableRecord
100
AcDbLinetypeTableRecord
  2
DASHDOT
 70
0
  3
Dash dot __ . __ . __ . __ . __ . __ . __ . __
 72
65
 73
4
 40
25.3999999999999986
 49
12.6999999999999993
 74
0
 49
-6.3499999999999996
 74
0
 49
0.0
 74
0
 49
-6.3499999999999996
 74
0
  0
LTYPE
  5
38
100
AcDbSymbolTableRecord
100
AcDbLinetypeTableRecord
  2
DASHDOT2
 70
0
  3
Dash dot (.5x) _._._._._._._._._._._._._._._.
 72
65
 73
4
 40
12.6999999999999993
 49
6.3499999999999996
 74
0
 49
-3.1749999999999998
 74
0
 49
0.0
 74
0
 49
-3.1749999999999998
 74
0
  0
LTYPE
  5
39
100
AcDbSymbolTableRecord
100
AcDbLinetypeTableRecord
  2
DASHDOTX2
 70
0
  3
Dash dot (2x) ____  .  ____  .  ____  .  ___
 72
65
 73
4
 40
50.7999999999999972
 49
25.3999999999999986
 74
0
 49
-12.6999999999999993
 74
0
 49
0.0
 74
0
 49
-12.6999999999999993
 74
0
  0
LTYPE
  5
3A
100
AcDbSymbolTableRecord
100
AcDbLinetypeTableRecord
  2
DIVIDE
 70
0
  3
Divide ____ . . ____ . . ____ . . ____ . . ____
 72
65
 73
6
 40
31.75
 49
12.6999999999999993
 74
0
 49
-6.3499999999999996
 74
0
 49
0.0
 74
0
 49
-6.3499999999999996
 74
0
 49
0.0
 74
0
 49
-6.3499999999999996
 74
0
  0
LTYPE
  5
3B
100
AcDbSymbolTableRecord
100
AcDbLinetypeTableRecord
  2
DIVIDE2
 70
0
  3
Divide (.5x) __..__..__..__..__..__..__..__.._
 72
65
 73
6
 40
15.875
 49
6.3499999999999996
 74
0
 49
-3.1749999999999998
 74
0
 49
0.0
 74
0
 49
-3.1749999999999998
 74
0
 49
0.0
 74
0
 49
-3.1749999999999998
 74
0
  0
LTYPE
  5
3C
100
AcDbSymbolTableRecord
100
AcDbLinetypeTableRecord
  2
DIVIDEX2
 70
0
  3
Divide (2x) ________  .  .  ________  .  .  _
 72
65
 73
6
 40
63.5
 49
25.3999999999999986
 74
0
 49
-12.6999999999999993
 74
0
 49
0.0
 74
0
 49
-12.6999999999999993
 74
0
 49
0.0
 74
0
 49
-12.6999999999999993
 74
0
  0
LTYPE
  5
3D
100
AcDbSymbolTableRecord
100
AcDbLinetypeTableRecord
  2
CENTER
 70
0
  3
Center ____ _ ____ _ ____ _ ____ _ ____ _ ____
 72
65
 73
4
 40
50.7999999999999972
 49
31.75
 74
0
 49
-6.3499999999999996
 74
0
 49
6.3499999999999996
 74
0
 49
-6.3499999999999996
 74
0
  0
LTYPE
  5
3E
100
AcDbSymbolTableRecord
100
AcDbLinetypeTableRecord
  2
CENTER2
 70
0
  3
Center (.5x) ___ _ ___ _ ___ _ ___ _ ___ _ ___
 72
65
 73
4
 40
28.5749999999999993
 49
19.0500000000000007
 74
0
 49
-3.1749999999999998
 74
0
 49
3.1749999999999998
 74
0
 49
-3.1749999999999998
 74
0
  0
LTYPE
  5
3F
100
AcDbSymbolTableRecord
100
AcDbLinetypeTableRecord
  2
CENTERX2
 70
0
  3
Center (2x) ________  __  ________  __  _____
 72
65
 73
4
 40
101.5999999999999943
 49
63.5
 74
0
 49
-12.6999999999999993
 74
0
 49
12.6999999999999993
 74
0
 49
-12.6999999999999993
 74
0
  0
LTYPE
  5
40
100
AcDbSymbolTableRecord
100
AcDbLinetypeTableRecord
  2
BORDER
 70
0
  3
Border __ __ . __ __ . __ __ . __ __ . __ __ .
 72
65
 73
6
 40
44.4500000000000028
 49
12.6999999999999993
 74
0
 49
-6.3499999999999996
 74
0
 49
12.6999999999999993
 74
0
 49
-6.3499999999999996
 74
0
 49
0.0
 74
0
 49
-6.3499999999999996
 74
0
  0
LTYPE
  5
41
100
AcDbSymbolTableRecord
100
AcDbLinetypeTableRecord
  2
BORDER2
 70
0
  3
Border (.5x) __.__.__.__.__.__.__.__.__.__.__.
 72
65
 73
6
 40
22.2250000000000014
 49
6.3499999999999996
 74
0
 49
-3.1749999999999998
 74
0
 49
6.3499999999999996
 74
0
 49
-3.1749999999999998
 74
0
 49
0.0
 74
0
 49
-3.1749999999999998
 74
0
  0
LTYPE
  5
42
100
AcDbSymbolTableRecord
100
AcDbLinetypeTableRecord
  2
BORDERX2
 70
0
  3
Border (2x) ____  ____  .  ____  ____  .  ___
 72
65
 73
6
 40
88.9000000000000057
 49
25.3999999999999986
 74
0
 49
-12.6999999999999993
 74
0
 49
25.3999999999999986
 74
0
 49
-12.6999999999999993
 74
0
 49
0.0
 74
0
 49
-12.6999999999999993
 74
0
  0
ENDTAB
  0
TABLE
  2
LAYER
  5
2
100
AcDbSymbolTable
 70
4
  0
LAYER
  5
10
100
AcDbSymbolTableRecord
100
AcDbLayerTableRecord
  2
0
 70
1
 62
7
  6
CONTINUOUS
290
1
370
25
390
F
  0
LAYER
  5
43
100
AcDbSymbolTableRecord
100
AcDbLayerTableRecord
  2
1
 70
1
 62
1
  6
CONTINUOUS
290
1
370
0
390
F
  0
LAYER
  5
44
100
AcDbSymbolTableRecord
100
AcDbLayerTableRecord
  2
2
 70
1
 62
190
  6
CONTINUOUS
290
1
370
25
390
F
  0
LAYER
  5
45
100
AcDbSymbolTableRecord
100
AcDbLayerTableRecord
  2
flat
 70
0
 62
7
  6
CONTINUOUS
290
1
370
30
390
F
  0
ENDTAB
  0
TABLE
  2
STYLE
  5
3
100
AcDbSymbolTable
 70
1
  0
STYLE
  5
11
100
AcDbSymbolTableRecord
100
AcDbTextStyleTableRecord
  2
Standard
 70
0
 40
0.0
 41
0.75
 50
0.0
 71
0
 42
2.5
  3
txt
  4

  0
ENDTAB
  0
TABLE
  2
VIEW
  5
6
100
AcDbSymbolTable
 70
0
  0
ENDTAB
  0
TABLE
  2
UCS
  5
7
100
AcDbSymbolTable
 70
0
  0
ENDTAB
  0
TABLE
  2
APPID
  5
9
100
AcDbSymbolTable
 70
1
  0
APPID
  5
12
100
AcDbSymbolTableRecord
100
AcDbRegAppTableRecord
  2
ACAD
 70
0
  0
ENDTAB
  0
TABLE
  2
DIMSTYLE
  5
A
100
AcDbSymbolTable
 70
1
100
AcDbDimStyleTable
 71
0
  0
DIMSTYLE
105
27
100
AcDbSymbolTableRecord
100
AcDbDimStyleTableRecord
  2
Standard
 41
2.5
 42
0.625
 43
3.75
 44
1.25
 70
0
 73
0
 74
0
 77
1
 78
8
140
2.5
141
2.5
143
0.03937007874016
147
0.625
171
3
172
1
271
2
272
2
274
3
278
44
283
0
284
8
340
11
  0
ENDTAB
  0
TABLE
  2
BLOCK_RECORD
  5
1
100
AcDbSymbolTable
 70
1
  0
BLOCK_RECORD
  5
1F
100
AcDbSymbolTableRecord
100
AcDbBlockTableRecord
  2
*Model_Space
340
22
  0
BLOCK_RECORD
  5
1B
100
AcDbSymbolTableRecord
100
AcDbBlockTableRecord
  2
*Paper_Space
340
1E
  0
BLOCK_RECORD
  5
23
100
AcDbSymbolTableRecord
100
AcDbBlockTableRecord
  2
*Paper_Space0
340
26
  0
ENDTAB
  0
ENDSEC
  0
SECTION
  2
BLOCKS
  0
BLOCK
  5
20
100
AcDbEntity
  8
0
100
AcDbBlockBegin
  2
*Model_Space
 70
0
 10
0.0
 20
0.0
 30
0.0
  3
*Model_Space
  1

  0
ENDBLK
  5
21
100
AcDbEntity
  8
0
100
AcDbBlockEnd
  0
BLOCK
  5
1C
100
AcDbEntity
 67
1
  8
0
100
AcDbBlockBegin
  2
*Paper_Space
 70
0
 10
0.0
 20
0.0
 30
0.0
  3
*Paper_Space
  1

  0
ENDBLK
  5
1D
100
AcDbEntity
 67
1
  8
0
100
AcDbBlockEnd
  0
BLOCK
  5
24
100
AcDbEntity
  8
0
100
AcDbBlockBegin
  2
*Paper_Space0
 70
0
 10
0.0
 20
0.0
 30
0.0
  3
*Paper_Space0
  1

  0
ENDBLK
  5
25
100
AcDbEntity
  8
0
100
AcDbBlockEnd
  0
ENDSEC
  0
SECTION
  2
ENTITIES
  0
ARC
  5
46
100
AcDbEntity
  8
1
 62
256
370
-1
  6
ByLayer
100
AcDbCircle
 10
-37.3538749654109026
 20
-30.4602798750840194
 30
0.0
 40
59.5851544010754637
100
AcDbArc
 50
119.1741481678935202
 51
150.6077080643741795
  0
ARC
  5
47
100
AcDbEntity
  8
1
 62
256
370
-1
  6
ByLayer
100
AcDbCircle
 10
-47.7196888787293716
 20
-9.9130677121019666
 30
0.0
 40
36.6042675210984569
100
AcDbArc
 50
82.7921707148783526
 51
120.6851800938969745
  0
ARC
  5
48
100
AcDbEntity
  8
1
 62
256
370
-1
  6
ByLayer
100
AcDbCircle
 10
-66.1099715381270983
 20
-70.3059274640796588
 30
0.0
 40
99.4013493064587976
100
AcDbArc
 50
46.3018018175248471
 51
76.6314488132550622
  0
ARC
  5
49
100
AcDbEntity
  8
1
 62
256
370
-1
  6
ByLayer
100
AcDbCircle
 10
0.0
 20
0.0
 30
0.0
 40
3.0
100
AcDbArc
 50
229.4886351501498041
 51
31.3354257742624256
  0
CIRCLE
  5
4A
100
AcDbEntity
100
AcDbCircle
  8
1
 62
256
370
-1
  6
ByLayer
 10
0.0
 20
0.0
 30
0.0
 40
0.5
  0
LINE
  5
4B
100
AcDbEntity
100
AcDbLine
  8
1
 62
256
370
-1
  6
ByLayer
 10
-1.9487965954656392
 20
-2.280831389976365
 30
0.0
 11
-18.4270117046558646
 21
8.4148537556489966
 31
0.0
  0
ARC
  5
4C
100
AcDbEntity
  8
1
 62
256
370
-1
  6
ByLayer
100
AcDbCircle
 10
-20.6047954465189278
 20
5.0596700090150026
 30
0.0
 40
4.0
100
AcDbArc
 50
57.0131910701278244
 51
77.3030147437034429
  0
LINE
  5
4D
100
AcDbEntity
100
AcDbLine
  8
1
 62
256
370
-1
  6
ByLayer
 10
-19.7256159499241654
 20
8.9618544501668413
 30
0.0
 11
-33.8760493213595382
 21
12.150009975799529
 31
0.0
  0
LINE
  5
4E
100
AcDbEntity
100
AcDbLine
  8
1
 62
256
370
-1
  6
ByLayer
 10
-50.0479093020778478
 20
18.444508644849968
 30
0.0
 11
-34.4576776685294774
 21
12.3284811568310868
 31
0.0
  0
ARC
  5
4F
100
AcDbEntity
  8
1
 62
256
370
-1
  6
ByLayer
100
AcDbCircle
 10
-32.9968698247647794
 20
16.0521944169513446
 30
0.0
 40
4.0
100
AcDbArc
 50
248.5799877491096765
 51
257.3030147437033861
  0
CIRCLE
  5
50
100
AcDbEntity
100
AcDbCircle
  8
1
 62
256
370
-1
  6
ByLayer
 10
-32.5431711270110924
 20
17.858947701308459
 30
0.0
 40
3.0
  0
ARC
  5
51
100
AcDbEntity
  8
1
 62
256
370
-1
  6
ByLayer
100
AcDbCircle
 10
-51.5087171458425601
 20
14.7207953847296569
 30
0.0
 40
4.0
100
AcDbArc
 50
68.5799877491096765
 51
123.9876990615997414
  0
LINE
  5
52
100
AcDbEntity
100
AcDbLine
  8
1
 62
256
370
-1
  6
ByLayer
 10
-75.8159047546580211
 20
3.1571553311757903
 30
0.0
 11
-53.7447767576542361
 21
18.0374258152154852
 31
0.0
  0
ARC
  5
53
100
AcDbEntity
  8
1
 62
256
370
-1
  6
ByLayer
100
AcDbCircle
 10
-76.3749196576109313
 20
3.9863129387972922
 30
0.0
 40
1.0
100
AcDbArc
 50
240.4621703131313382
 51
303.9876990615996988
  0
LINE
  5
54
100
AcDbEntity
100
AcDbLine
  8
1
 62
256
370
-1
  6
ByLayer
 10
-77.7345122437529312
 20
3.6073337272811372
 30
0.0
 11
-76.8679177649438969
 21
3.1162825564736796
 31
0.0
  0
ARC
  5
55
100
AcDbEntity
  8
1
 62
256
370
-1
  6
ByLayer
100
AcDbCircle
 10
-78.2275103510858827
 20
2.7373033449575583
 30
0.0
 40
1.0
100
AcDbArc
 50
60.4621703131317645
 51
123.9876990615997414
  0
LINE
  5
56
100
AcDbEntity
100
AcDbLine
  8
1
 62
256
370
-1
  6
ByLayer
 10
-87.8389243117961485
 20
-2.5366320351097791
 30
0.0
 11
-78.7865252540387928
 21
3.5664609525789963
 31
0.0
  0
ARC
  5
57
100
AcDbEntity
  8
1
 62
256
370
-1
  6
ByLayer
100
AcDbCircle
 10
-88.3979392147490586
 20
-1.7074744274883145
 30
0.0
 40
1.0
100
AcDbArc
 50
150.6077080643739237
 51
303.9876990615996988
  0
CIRCLE
  5
58
100
AcDbEntity
100
AcDbCircle
  8
2
 62
256
370
-1
  6
ByLayer
 10
-17.0
 20
33.0
 30
0.0
 40
3.1749999999999998
  0
ARC
  5
59
100
AcDbEntity
  8
2
 62
256
370
-1
  6
ByLayer
100
AcDbCircle
 10
-45.1086956521739069
 20
18.4565217391304408
 30
0.0
 40
36.6042675210984569
100
AcDbArc
 50
48.8044716532786111
 51
86.6974810322972473
  0
ARC
  5
5A
100
AcDbEntity
  8
2
 62
256
370
-1
  6
ByLayer
100
AcDbCircle
 10
-94.1176470588235503
 20
-21.3382352941176272
 30
0.0
 40
99.4013493064587976
100
AcDbArc
 50
19.6035464196528579
 51
42.6437497516553279
  0
ARC
  5
5B
100
AcDbEntity
  8
2
 62
256
370
-1
  6
ByLayer
100
AcDbCircle
 10
-70.2573622068235437
 20
-15.4804764481899575
 30
0.0
 40
75.0
100
AcDbArc
 50
351.7364998878048254
 51
21.5039279693390846
  0
ARC
  5
5C
100
AcDbEntity
  8
2
 62
256
370
-1
  6
ByLayer
100
AcDbCircle
 10
1.5594531857751024
 20
-24.465928295265325
 30
0.0
 40
3.0
100
AcDbArc
 50
196.8484683610155059
 51
323.2736074670033304
  0
ARC
  5
5D
100
AcDbEntity
  8
2
 62
256
370
-1
  6
ByLayer
100
AcDbCircle
 10
-45.8662473671226607
 20
-19.0189177627388126
 30
0.0
 40
45.0
100
AcDbArc
 50
351.9308906524203735
 51
28.3924753273143544
  0
LINE
  5
5E
100
AcDbEntity
100
AcDbLine
  8
2
 62
256
370
-1
  6
ByLayer
 10
-22.8687820120312821
 20
31.2097339174453587
 30
0.0
 11
-6.2792510550582818
 21
2.3789728573340305
 31
0.0
  0
LINE
  5
5F
100
AcDbEntity
100
AcDbLine
  8
2
 62
256
370
-1
  6
ByLayer
 10
-31.1868495332514755
 20
43.2709318232146387
 30
0.0
 11
-22.8687820120312821
 21
31.2097339174453587
 31
0.0
  0
ARC
  5
60
100
AcDbEntity
  8
2
 62
256
370
-1
  6
ByLayer
100
AcDbCircle
 10
-34.4797006769126995
 20
41.0
 30
0.0
 40
4.0
100
AcDbArc
 50
34.5922886875099564
 51
90.0
  0
LINE
  5
61
100
AcDbEntity
100
AcDbLine
  8
2
 62
256
370
-1
  6
ByLayer
 10
-61.0984373249639461
 20
45.0
 30
0.0
 11
-34.4797006769126995
 21
45.0
 31
0.0
  0
ARC
  5
62
100
AcDbEntity
  8
2
 62
256
370
-1
  6
ByLayer
100
AcDbCircle
 10
-61.0984373249639461
 20
46.0
 30
0.0
 40
1.0
100
AcDbArc
 50
206.4744712515316678
 51
270.0
  0
LINE
  5
63
100
AcDbEntity
100
AcDbLine
  8
2
 62
256
370
-1
  6
ByLayer
 10
-62.4376088881761646
 20
46.4457990212386846
 30
0.0
 11
-61.9935704059427621
 21
45.5542009787613154
 31
0.0
  0
ARC
  5
64
100
AcDbEntity
  8
2
 62
256
370
-1
  6
ByLayer
100
AcDbCircle
 10
-63.3327419691549807
 20
46.0
 30
0.0
 40
1.0
100
AcDbArc
 50
26.4744712515316785
 51
90.0
  0
LINE
  5
65
100
AcDbEntity
100
AcDbLine
  8
2
 62
256
370
-1
  6
ByLayer
 10
-74.2503274493452778
 20
47.0
 30
0.0
 11
-63.3327419691549807
 21
47.0
 31
0.0
  0
ARC
  5
66
100
AcDbEntity
  8
2
 62
256
370
-1
  6
ByLayer
100
AcDbCircle
 10
-48.0000000000000071
 20
-4.375000000000024
 30
0.0
 40
59.5851544010754637
100
AcDbArc
 50
85.1864491062938072
 51
116.6200088783419915
  0
ARC
  5
67
100
AcDbEntity
  8
2
 62
256
370
-1
  6
ByLayer
100
AcDbCircle
 10
-74.2503274493452778
 20
48.0
 30
0.0
 40
1.0
100
AcDbArc
 50
116.6200015884497105
 51
270.0
  0
CIRCLE
  5
68
100
AcDbEntity
100
AcDbCircle
  8
flat
 62
256
370
-1
  6
ByLayer
 10
0.0
 20
0.0
 30
0.0
 40
3.1749999999999998
  0
ARC
  5
69
100
AcDbEntity
  8
flat
 62
256
370
-1
  6
ByLayer
100
AcDbCircle
 10
-9.6843947421542254
 20
-30.1301183148865164
 30
0.0
 40
36.6042675210984569
100
AcDbArc
 50
93.6289676532786217
 51
131.5219770322972579
  0
ARC
  5
6A
100
AcDbEntity
  8
flat
 62
256
370
-1
  6
ByLayer
100
AcDbCircle
 10
-16.3921280181669289
 20
-92.903570662295806
 30
0.0
 40
99.4013493064587976
100
AcDbArc
 50
64.4280424196528543
 51
87.4682457516553313
  0
ARC
  5
6B
100
AcDbEntity
  8
flat
 62
256
370
-1
  6
ByLayer
100
AcDbCircle
 10
-3.5981116817169578
 20
-71.9288316198601194
 30
0.0
 40
75.0
100
AcDbArc
 50
36.5609958878048218
 51
66.3284239693390987
  0
ARC
  5
6C
100
AcDbEntity
  8
flat
 62
256
370
-1
  6
ByLayer
100
AcDbCircle
 10
53.6735410546536542
 20
-27.6755706001874948
 30
0.0
 40
3.0
100
AcDbArc
 50
241.6729643610155449
 51
8.0981034670032965
  0
ARC
  5
6D
100
AcDbEntity
  8
flat
 62
256
370
-1
  6
ByLayer
100
AcDbCircle
 10
16.1961400976831484
 20
-57.2443280002719348
 30
0.0
 40
45.0
100
AcDbArc
 50
36.7553866524203912
 51
73.2169713273143543
  0
LINE
  5
6E
100
AcDbEntity
100
AcDbLine
  8
flat
 62
256
370
-1
  6
ByLayer
 10
-2.9005218673146942
 20
-5.4069055705011948
 30
0.0
 11
29.1898100395483375
 21
-14.1610999243504487
 31
0.0
  0
LINE
  5
6F
100
AcDbEntity
100
AcDbLine
  8
flat
 62
256
370
-1
  6
ByLayer
 10
-17.3026636038693766
 20
-2.7159846110709829
 30
0.0
 11
-2.9005218673146942
 21
-5.4069055705011948
 31
0.0
  0
ARC
  5
70
100
AcDbEntity
  8
flat
 62
256
370
-1
  6
ByLayer
100
AcDbCircle
 10
-18.0373171787454964
 20
-6.6479413917237729
 30
0.0
 40
4.0
100
AcDbArc
 50
79.4167846875099599
 51
134.8244960000000106
  0
LINE
  5
71
100
AcDbEntity
100
AcDbLine
  8
flat
 62
256
370
-1
  6
ByLayer
 10
-39.7369230072679755
 20
-22.5754097286899373
 30
0.0
 11
-20.8570672286891607
 21
-3.8108637304951074
 31
0.0
  0
ARC
  5
72
100
AcDbEntity
  8
flat
 62
256
370
-1
  6
ByLayer
100
AcDbCircle
 10
-40.4418605197538881
 20
-21.8661403133828003
 30
0.0
 40
1.0
100
AcDbArc
 50
251.2989672515316499
 51
314.8244960000000106
  0
LINE
  5
73
100
AcDbEntity
100
AcDbLine
  8
flat
 62
256
370
-1
  6
ByLayer
 10
-41.7059544044900576
 20
-22.4939809728070195
 30
0.0
 11
-40.7624905836211866
 21
-22.8133448119703104
 31
0.0
  0
ARC
  5
74
100
AcDbEntity
  8
flat
 62
256
370
-1
  6
ByLayer
100
AcDbCircle
 10
-42.0265844683573562
 20
-23.441185471394526
 30
0.0
 40
1.0
100
AcDbArc
 50
71.2989672515316784
 51
134.8244960000000106
  0
LINE
  5
75
100
AcDbEntity
100
AcDbLine
  8
flat
 62
256
370
-1
  6
ByLayer
 10
-50.475031450943888
 20
-30.4281316068450174
 30
0.0
 11
-42.7315219808432687
 21
-22.7319160560873534
 31
0.0
  0
ARC
  5
76
100
AcDbEntity
  8
flat
 62
256
370
-1
  6
ByLayer
100
AcDbCircle
 10
4.3596876546387477
 20
-48.3620072841687545
 30
0.0
 40
59.5851544010754637
100
AcDbArc
 50
130.0109451062938035
 51
161.4445048783419736
  0
ARC
  5
77
100
AcDbEntity
  8
flat
 62
256
370
-1
  6
ByLayer
100
AcDbCircle
 10
-51.1799689634297863
 20
-29.7188621915378519
 30
0.0
 40
1.0
100
AcDbArc
 50
161.4444975884497069
 51
314.8244960000000106
  0
ENDSEC
  0
SECTION
  2
OBJECTS
  0
DICTIONARY
  5
C
100
AcDbDictionary
280
0
281
1
  3
ACAD_GROUP
350
D
  3
ACAD_LAYOUT
350
1A
  3
ACAD_MLINESTYLE
350
17
  3
ACAD_PLOTSETTINGS
350
19
  3
ACAD_PLOTSTYLENAME
350
E
  3
AcDbVariableDictionary
350
78
  0
DICTIONARY
  5
D
100
AcDbDictionary
280
0
281
1
  0
ACDBDICTIONARYWDFLT
  5
E
100
AcDbDictionary
281
1
  3
Normal
350
F
100
AcDbDictionaryWithDefault
340
F
  0
ACDBPLACEHOLDER
  5
F
  0
DICTIONARY
  5
17
100
AcDbDictionary
280
0
281
1
  3
Standard
350
18
  0
MLINESTYLE
  5
18
100
AcDbMlineStyle
  2
STANDARD
 70
0
  3

 62
256
 51
90.0
 52
90.0
 71
2
 49
0.5
 62
256
  6
BYLAYER
 49
-0.5
 62
256
  6
BYLAYER
  0
DICTIONARY
  5
19
100
AcDbDictionary
280
0
281
1
  0
DICTIONARY
  5
1A
100
AcDbDictionary
281
1
  3
Layout1
350
1E
  3
Layout2
350
26
  3
Model
350
22
  0
LAYOUT
  5
1E
100
AcDbPlotSettings
  1

  2
C:\Program Files\AutoCAD 2002\plotters\DWF ePlot (optimized for plotting).pc3
  4

  6

 40
0.0
 41
0.0
 42
0.0
 43
0.0
 44
0.0
 45
0.0
 46
0.0
 47
0.0
 48
0.0
 49
0.0
140
0.0
141
0.0
142
1.0
143
1.0
 70
688
 72
0
 73
0
 74
5
  7

 75
16
147
1.0
148
0.0
149
0.0
100
AcDbLayout
  1
Layout1
 70
1
 71
1
 10
0.0
 20
0.0
 11
420.0
 21
297.0
 12
0.0
 22
0.0
 32
0.0
 14
100000000000000000000.0
 24
100000000000000000000.0
 34
100000000000000000000.0
 15
-100000000000000000000.0
 25
-100000000000000000000.0
 35
-100000000000000000000.0
146
0.0
 13
0.0
 23
0.0
 33
0.0
 16
1.0
 26
0.0
 36
0.0
 17
0.0
 27
1.0
 37
0.0
 76
0
330
1B
  0
LAYOUT
  5
22
100
AcDbPlotSettings
  1

  2
C:\Program Files\AutoCAD 2002\plotters\DWF ePlot (optimized for plotting).pc3
  4

  6

 40
0.0
 41
0.0
 42
0.0
 43
0.0
 44
0.0
 45
0.0
 46
0.0
 47
0.0
 48
0.0
 49
0.0
140
0.0
141
0.0
142
1.0
143
1.0
 70
1712
 72
0
 73
0
 74
0
  7

 75
0
147
1.0
148
0.0
149
0.0
100
AcDbLayout
  1
Model
 70
1
 71
0
 10
0.0
 20
0.0
 11
12.0
 21
9.0
 12
0.0
 22
0.0
 32
0.0
 14
0.0
 24
0.0
 34
0.0
 15
0.0
 25
0.0
 35
0.0
146
0.0
 13
0.0
 23
0.0
 33
0.0
 16
1.0
 26
0.0
 36
0.0
 17
0.0
 27
1.0
 37
0.0
 76
0
330
1F
  0
LAYOUT
  5
26
100
AcDbPlotSettings
  1

  2
C:\Program Files\AutoCAD 2002\plotters\DWF ePlot (optimized for plotting).pc3
  4

  6

 40
0.0
 41
0.0
 42
0.0
 43
0.0
 44
0.0
 45
0.0
 46
0.0
 47
0.0
 48
0.0
 49
0.0
140
0.0
141
0.0
142
1.0
143
1.0
 70
688
 72
0
 73
0
 74
5
  7

 75
16
147
1.0
148
0.0
149
0.0
100
AcDbLayout
  1
Layout2
 70
1
 71
2
 10
0.0
 20
0.0
 11
12.0
 21
9.0
 12
0.0
 22
0.0
 32
0.0
 14
0.0
 24
0.0
 34
0.0
 15
0.0
 25
0.0
 35
0.0
146
0.0
 13
0.0
 23
0.0
 33
0.0
 16
1.0
 26
0.0
 36
0.0
 17
0.0
 27
1.0
 37
0.0
 76
0
330
23
  0
DICTIONARY
  5
78
100
AcDbDictionary
281
1
  3
DIMASSOC
350
7A
  3
HIDETEXT
350
79
  0
DICTIONARYVAR
  5
79
100
DictionaryVariables
280
0
  1
2
  0
DICTIONARYVAR
  5
7A
100
DictionaryVariables
280
0
  1
1
  0
ENDSEC
  0
EOF
