999
dxflib 2.2.0.0
  0
SECTION
  2
HEADER
  9
$ACADVER
  1
AC1015
  9
$HANDSEED
  5
FFFF
  9
$DIMLIM
 70
0
  9
$DIMLUNIT
 70
2
  9
$DIMTIX
 70
0
  9
$AUNITS
 70
0
  9
$QTEXTMODE
 70
0
  9
$USERR1
 40
0.0
  9
$DIMALTU
 70
2
  9
$USERR2
 40
0.0
  9
$UCSORGBOTTOM
 10
0.0
 20
0.0
 30
0.0
  9
$USERR3
 40
0.0
  9
$USERR4
 40
0.0
  9
$USERR5
 40
0.0
  9
$LIMMAX
 10
420.0
 20
297.0
  9
$PELEVATION
 40
0.0
  9
$DIMALTZ
 70
0
  9
$DIMADEC
 70
2
  9
$JOINSTYLE
280
0
  9
$TILEMODE
 70
1
  9
$DIMATFIT
 70
3
  9
$PEXTMIN
 10
100000000000000000000.0
 20
100000000000000000000.0
 30
100000000000000000000.0
  9
$TDUSRTIMER
 40
0.0000000116
  9
$DWGCODEPAGE
  3
ANSI_1252
  9
$UCSORTHOVIEW
 70
0
  9
$DIMSOXD
 70
0
  9
$DIMTZIN
 70
0
  9
$SPLINETYPE
 70
6
  9
$DIMLFAC
 40
1.0
  9
$DIMSE1
 70
0
  9
$FILLETRAD
 40
10.0
  9
$DIMSE2
 70
0
  9
$PSTYLEMODE
290
1
  9
$TEXTSTYLE
  7
Standard
  9
$DIMTSZ
 40
0.0
  9
$PUCSXDIR
 10
1.0
 20
0.0
 30
0.0
  9
$DIMTXSTY
  7
Standard
  9
$PLIMMAX
 10
279.3999999999999773
 20
215.9000000000000057
  9
$DIMTM
 40
0.0
  9
$UCSORG
 10
0.0
 20
0.0
 30
0.0
  9
$DIMTP
 40
0.0
  9
$PSLTSCALE
 70
1
  9
$EXTNAMES
290
1
  9
$ANGBASE
 50
0.0
  9
$PUCSYDIR
 10
0.0
 20
1.0
 30
0.0
  9
$DIMASZ
 40
3.302
  9
$PUCSORTHOVIEW
 70
0
  9
$UNITMODE
 70
0
  9
$MEASUREMENT
 70
1
  9
$INSBASE
 10
0.0
 20
0.0
 30
0.0
  9
$EXTMAX
 10
-0.8363371691
 20
66.0
 30
0.0
  9
$ELEVATION
 40
0.0
  9
$TDCREATE
 40
2457706.7535948501899838
  9
$DIMDEC
 70
2
  9
$CELTYPE
  6
ByLayer
  9
$GRIDUNIT
 10
0.0
 20
0.0
  9
$MENU
  1
.
  9
$ANGDIR
 70
0
  9
$DIMALTTD
 70
3
  9
$TREEDEPTH
 70
3020
  9
$PROXYGRAPHICS
 70
1
  9
$LTSCALE
 40
1.0
  9
$DIMTMOVE
 70
0
  9
$DIMAZIN
 70
0
  9
$TDUPDATE
 40
2457706.7537523610517383
  9
$DIMTOLJ
 70
0
  9
$DIMCEN
 40
2.5
  9
$DIMTVP
 40
0.0
  9
$TRACEWID
 40
1.0
  9
$CMLSTYLE
  2
Standard
  9
$DISPSILH
 70
0
  9
$DIMSTYLE
  2
ISO-25
  9
$SKETCHINC
 40
1.0
  9
$FILLMODE
 70
1
  9
$PLINEGEN
 70
0
  9
$DIMLWD
 70
-2
  9
$THICKNESS
 40
0.0
  9
$PUCSORG
 10
0.0
 20
0.0
 30
0.0
  9
$DIMLWE
 70
-2
  9
$CELTSCALE
 40
1.0
  9
$DIMALTTZ
 70
0
  9
$INSUNITS
 70
4
  9
$UCSORGBACK
 10
0.0
 20
0.0
 30
0.0
  9
$PLINEWID
 40
0.0
  9
$PEXTMAX
 10
-100000000000000000000.0
 20
-100000000000000000000.0
 30
-100000000000000000000.0
  9
$DIMJUST
 70
0
  9
$UCSYDIR
 10
0.0
 20
1.0
 30
0.0
  9
$PUCSORGBACK
 10
0.0
 20
0.0
 30
0.0
  9
$GRIDMODE
 70
1
  9
$PUCSORGBOTTOM
 10
0.0
 20
0.0
 30
0.0
  9
$PDSIZE
 40
-1.0
  9
$DIMUPT
 70
0
  9
$DIMTAD
 70
1
  9
$MAXACTVP
 70
64
  9
$UCSXDIR
 10
1.0
 20
0.0
 30
0.0
  9
$DIMSAH
 70
0
  9
$TDUCREATE
 40
2457707.0869281832128763
  9
$DIMFRAC
 70
0
  9
$USERI1
 70
0
  9
$USERI2
 70
0
  9
$CELWEIGHT
370
-1
  9
$USERI3
 70
0
  9
$UCSORGRIGHT
 10
0.0
 20
0.0
 30
0.0
  9
$LWDISPLAY
290
1
  9
$SKPOLY
 70
0
  9
$USERI4
 70
0
  9
$USERI5
 70
0
  9
$UCSORGTOP
 10
0.0
 20
0.0
 30
0.0
  9
$LIMMIN
 10
0.0
 20
0.0
  9
$ACADMAINTVER
 70
6
  9
$MIRRTEXT
 70
1
  9
$TDUUPDATE
 40
2457707.0870856950059533
  9
$TEXTSIZE
 40
3.5
  9
$DIMGAP
 40
1.524
  9
$LUPREC
 70
2
  9
$CECOLOR
 62
256
  9
$DIMSD1
 70
0
  9
$DIMSD2
 70
0
  9
$WORLDVIEW
 70
1
  9
$PUCSORGRIGHT
 10
0.0
 20
0.0
 30
0.0
  9
$PLIMCHECK
 70
0
  9
$DIMTFAC
 40
1.0
  9
$CMLJUST
 70
0
  9
$USRTIMER
 70
1
  9
$SURFU
 70
6
  9
$SURFV
 70
6
  9
$DIMASO
 70
1
  9
$DIMDLE
 40
0.0
  9
$EXTMIN
 10
-61.6000578593000014
 20
39.9684505756000021
 30
0.0
  9
$UCSORGLEFT
 10
0.0
 20
0.0
 30
0.0
  9
$OLESTARTUP
290
0
  9
$PUCSORGFRONT
 10
0.0
 20
0.0
 30
0.0
  9
$DIMDLI
 40
3.75
  9
$LUNITS
 70
2
  9
$DIMCLRD
 70
0
  9
$SHADEDIF
 70
70
  9
$DIMCLRE
 70
0
  9
$SPLINESEGS
 70
8
  9
$PUCSORGLEFT
 10
0.0
 20
0.0
 30
0.0
  9
$DIMALTRND
 40
0.0
  9
$DIMRND
 40
0.0
  9
$DIMALT
 70
0
  9
$FINGERPRINTGUID
  2
{8267EA34-4C6A-4AE5-A6CC-89C6E6A306AE}
  9
$DIMCLRT
 70
0
  9
$PUCSORGTOP
 10
0.0
 20
0.0
 30
0.0
  9
$DIMTOH
 70
1
  9
$UCSORGFRONT
 10
0.0
 20
0.0
 30
0.0
  9
$VISRETAIN
 70
1
  9
$SHADEDGE
 70
3
  9
$DIMTOL
 70
0
  9
$SURFTYPE
 70
6
  9
$VERSIONGUID
  2
{FAEB1C32-E019-11D5-929B-00C0DF256EC4}
  9
$CHAMFERA
 40
10.0
  9
$SURFTAB1
 70
6
  9
$CHAMFERB
 40
10.0
  9
$SURFTAB2
 70
6
  9
$CHAMFERC
 40
20.0
  9
$AUPREC
 70
2
  9
$CHAMFERD
 40
0.0
  9
$DIMTDEC
 70
2
  9
$PDMODE
 70
0
  9
$PLIMMIN
 10
0.0
 20
0.0
  9
$SPLFRAME
 70
0
  9
$XEDIT
290
1
  9
$DIMDSEP
 70
44
  9
$LIMCHECK
 70
0
  9
$PINSBASE
 10
142.7697540447661595
 20
81.2288493120171182
 30
0.0
  9
$ORTHOMODE
 70
0
  9
$PSVPSCALE
 40
1.0
  9
$CLAYER
  8
0
  9
$DIMSHO
 70
1
  9
$DIMTOFL
 70
1
  9
$DIMTXT
 40
3.5
  9
$DIMEXE
 40
1.0
  9
$TDINDWG
 40
0.0000000116
  9
$REGENMODE
 70
1
  9
$ATTMODE
 70
1
  9
$CMLSCALE
 40
20.0
  9
$DIMTIH
 70
1
  9
$DIMZIN
 70
0
  9
$CEPSNTYPE
380
0
  9
$DIMSCALE
 40
1.0
  9
$DIMALTD
 70
3
  9
$DIMAUNIT
 70
0
  9
$DIMEXO
 40
1.0
  9
$DIMALTF
 40
0.0393700787
  9
$ENDCAPS
280
0
  0
ENDSEC
  0
SECTION
  2
TABLES
  0
TABLE
  2
VPORT
  5
8
100
AcDbSymbolTable
 70
1
  0
VPORT
  5
30
100
AcDbSymbolTableRecord
100
AcDbViewportTableRecord
  2
*Active
 70
0
 10
0.0
 20
0.0
 11
1.0
 21
1.0
 12
286.3055555555554861
 22
148.5
 13
0.0
 23
0.0
 14
10.0
 24
10.0
 15
10.0
 25
10.0
 16
0.0
 26
0.0
 36
1.0
 17
0.0
 27
0.0
 37
0.0
 40
297.0
 41
1.92798353909465
 42
50.0
 43
0.0
 44
0.0
 50
0.0
 51
0.0
 71
0
 72
100
 73
1
 74
3
 75
1
 76
1
 77
0
 78
0
281
0
 65
1
110
0.0
120
0.0
130
0.0
111
1.0
121
0.0
131
0.0
112
0.0
122
1.0
132
0.0
 79
0
146
0.0
  0
ENDTAB
  0
TABLE
  2
LTYPE
  5
5
100
AcDbSymbolTable
 70
21
  0
LTYPE
  5
14
100
AcDbSymbolTableRecord
100
AcDbLinetypeTableRecord
  2
ByBlock
 70
0
  3

 72
65
 73
0
 40
0.0
  0
LTYPE
  5
15
100
AcDbSymbolTableRecord
100
AcDbLinetypeTableRecord
  2
ByLayer
 70
0
  3

 72
65
 73
0
 40
0.0
  0
LTYPE
  5
16
100
AcDbSymbolTableRecord
100
AcDbLinetypeTableRecord
  2
CONTINUOUS
 70
0
  3
Solid line
 72
65
 73
0
 40
0.0
  0
LTYPE
  5
31
100
AcDbSymbolTableRecord
100
AcDbLinetypeTableRecord
  2
DOT
 70
0
  3
Dot . . . . . . . . . . . . . . . . . . . . . .
 72
65
 73
2
 40
6.3499999999999996
 49
0.0
 74
0
 49
-6.3499999999999996
 74
0
  0
LTYPE
  5
32
100
AcDbSymbolTableRecord
100
AcDbLinetypeTableRecord
  2
DOT2
 70
0
  3
Dot (.5x) .....................................
 72
65
 73
2
 40
3.1749999999999998
 49
0.0
 74
0
 49
-3.1749999999999998
 74
0
  0
LTYPE
  5
33
100
AcDbSymbolTableRecord
100
AcDbLinetypeTableRecord
  2
DOTX2
 70
0
  3
Dot (2x) .  .  .  .  .  .  .  .  .  .  .  .  .
 72
65
 73
2
 40
12.6999999999999993
 49
0.0
 74
0
 49
-12.6999999999999993
 74
0
  0
LTYPE
  5
34
100
AcDbSymbolTableRecord
100
AcDbLinetypeTableRecord
  2
DASHED
 70
0
  3
Dashed __ __ __ __ __ __ __ __ __ __ __ __ __ _
 72
65
 73
2
 40
19.0500000000000007
 49
12.6999999999999993
 74
0
 49
-6.3499999999999996
 74
0
  0
LTYPE
  5
35
100
AcDbSymbolTableRecord
100
AcDbLinetypeTableRecord
  2
DASHED2
 70
0
  3
Dashed (.5x) _ _ _ _ _ _ _ _ _ _ _ _ _ _ _ _ _
 72
65
 73
2
 40
9.5250000000000004
 49
6.3499999999999996
 74
0
 49
-3.1749999999999998
 74
0
  0
LTYPE
  5
36
100
AcDbSymbolTableRecord
100
AcDbLinetypeTableRecord
  2
DASHEDX2
 70
0
  3
Dashed (2x) ____  ____  ____  ____  ____  ___
 72
65
 73
2
 40
38.1000000000000014
 49
25.3999999999999986
 74
0
 49
-12.6999999999999993
 74
0
  0
LTYPE
  5
37
100
AcDbSymbolTableRecord
100
AcDbLinetypeTableRecord
  2
DASHDOT
 70
0
  3
Dash dot __ . __ . __ . __ . __ . __ . __ . __
 72
65
 73
4
 40
25.3999999999999986
 49
12.6999999999999993
 74
0
 49
-6.3499999999999996
 74
0
 49
0.0
 74
0
 49
-6.3499999999999996
 74
0
  0
LTYPE
  5
38
100
AcDbSymbolTableRecord
100
AcDbLinetypeTableRecord
  2
DASHDOT2
 70
0
  3
Dash dot (.5x) _._._._._._._._._._._._._._._.
 72
65
 73
4
 40
12.6999999999999993
 49
6.3499999999999996
 74
0
 49
-3.1749999999999998
 74
0
 49
0.0
 74
0
 49
-3.1749999999999998
 74
0
  0
LTYPE
  5
39
100
AcDbSymbolTableRecord
100
AcDbLinetypeTableRecord
  2
DASHDOTX2
 70
0
  3
Dash dot (2x) ____  .  ____  .  ____  .  ___
 72
65
 73
4
 40
50.7999999999999972
 49
25.3999999999999986
 74
0
 49
-12.6999999999999993
 74
0
 49
0.0
 74
0
 49
-12.6999999999999993
 74
0
  0
LTYPE
  5
3A
100
AcDbSymbolTableRecord
100
AcDbLinetypeTableRecord
  2
DIVIDE
 70
0
  3
Divide ____ . . ____ . . ____ . . ____ . . ____
 72
65
 73
6
 40
31.75
 49
12.6999999999999993
 74
0
 49
-6.3499999999999996
 74
0
 49
0.0
 74
0
 49
-6.3499999999999996
 74
0
 49
0.0
 74
0
 49
-6.3499999999999996
 74
0
  0
LTYPE
  5
3B
100
AcDbSymbolTableRecord
100
AcDbLinetypeTableRecord
  2
DIVIDE2
 70
0
  3
Divide (.5x) __..__..__..__..__..__..__..__.._
 72
65
 73
6
 40
15.875
 49
6.3499999999999996
 74
0
 49
-3.1749999999999998
 74
0
 49
0.0
 74
0
 49
-3.1749999999999998
 74
0
 49
0.0
 74
0
 49
-3.1749999999999998
 74
0
  0
LTYPE
  5
3C
100
AcDbSymbolTableRecord
100
AcDbLinetypeTableRecord
  2
DIVIDEX2
 70
0
  3
Divide (2x) ________  .  .  ________  .  .  _
 72
65
 73
6
 40
63.5
 49
25.3999999999999986
 74
0
 49
-12.6999999999999993
 74
0
 49
0.0
 74
0
 49
-12.6999999999999993
 74
0
 49
0.0
 74
0
 49
-12.6999999999999993
 74
0
  0
LTYPE
  5
3D
100
AcDbSymbolTableRecord
100
AcDbLinetypeTableRecord
  2
CENTER
 70
0
  3
Center ____ _ ____ _ ____ _ ____ _ ____ _ ____
 72
65
 73
4
 40
50.7999999999999972
 49
31.75
 74
0
 49
-6.3499999999999996
 74
0
 49
6.3499999999999996
 74
0
 49
-6.3499999999999996
 74
0
  0
LTYPE
  5
3E
100
AcDbSymbolTableRecord
100
AcDbLinetypeTableRecord
  2
CENTER2
 70
0
  3
Center (.5x) ___ _ ___ _ ___ _ ___ _ ___ _ ___
 72
65
 73
4
 40
28.5749999999999993
 49
19.0500000000000007
 74
0
 49
-3.1749999999999998
 74
0
 49
3.1749999999999998
 74
0
 49
-3.1749999999999998
 74
0
  0
LTYPE
  5
3F
100
AcDbSymbolTableRecord
100
AcDbLinetypeTableRecord
  2
CENTERX2
 70
0
  3
Center (2x) ________  __  ________  __  _____
 72
65
 73
4
 40
101.5999999999999943
 49
63.5
 74
0
 49
-12.6999999999999993
 74
0
 49
12.6999999999999993
 74
0
 49
-12.6999999999999993
 74
0
  0
LTYPE
  5
40
100
AcDbSymbolTableRecord
100
AcDbLinetypeTableRecord
  2
BORDER
 70
0
  3
Border __ __ . __ __ . __ __ . __ __ . __ __ .
 72
65
 73
6
 40
44.4500000000000028
 49
12.6999999999999993
 74
0
 49
-6.3499999999999996
 74
0
 49
12.6999999999999993
 74
0
 49
-6.3499999999999996
 74
0
 49
0.0
 74
0
 49
-6.3499999999999996
 74
0
  0
LTYPE
  5
41
100
AcDbSymbolTableRecord
100
AcDbLinetypeTableRecord
  2
BORDER2
 70
0
  3
Border (.5x) __.__.__.__.__.__.__.__.__.__.__.
 72
65
 73
6
 40
22.2250000000000014
 49
6.3499999999999996
 74
0
 49
-3.1749999999999998
 74
0
 49
6.3499999999999996
 74
0
 49
-3.1749999999999998
 74
0
 49
0.0
 74
0
 49
-3.1749999999999998
 74
0
  0
LTYPE
  5
42
100
AcDbSymbolTableRecord
100
AcDbLinetypeTableRecord
  2
BORDERX2
 70
0
  3
Border (2x) ____  ____  .  ____  ____  .  ___
 72
65
 73
6
 40
88.9000000000000057
 49
25.3999999999999986
 74
0
 49
-12.6999999999999993
 74
0
 49
25.3999999999999986
 74
0
 49
-12.6999999999999993
 74
0
 49
0.0
 74
0
 49
-12.6999999999999993
 74
0
  0
ENDTAB
  0
TABLE
  2
LAYER
  5
2
100
AcDbSymbolTable
 70
4
  0
LAYER
  5
10
100
AcDbSymbolTableRecord
100
AcDbLayerTableRecord
  2
0
 70
0
 62
7
  6
CONTINUOUS
290
1
370
25
390
F
  0
LAYER
  5
43
100
AcDbSymbolTableRecord
100
AcDbLayerTableRecord
  2
1
 70
1
 62
3
  6
CONTINUOUS
290
1
370
0
390
F
  0
LAYER
  5
44
100
AcDbSymbolTableRecord
100
AcDbLayerTableRecord
  2
2
 70
1
 62
1
  6
CONTINUOUS
290
1
370
0
390
F
  0
LAYER
  5
45
100
AcDbSymbolTableRecord
100
AcDbLayerTableRecord
  2
bitprofile
 70
1
 62
8
  6
CONTINUOUS
290
1
370
50
390
F
  0
ENDTAB
  0
TABLE
  2
STYLE
  5
3
100
AcDbSymbolTable
 70
1
  0
STYLE
  5
11
100
AcDbSymbolTableRecord
100
AcDbTextStyleTableRecord
  2
Standard
 70
0
 40
0.0
 41
0.75
 50
0.0
 71
0
 42
2.5
  3
txt
  4

  0
ENDTAB
  0
TABLE
  2
VIEW
  5
6
100
AcDbSymbolTable
 70
0
  0
ENDTAB
  0
TABLE
  2
UCS
  5
7
100
AcDbSymbolTable
 70
0
  0
ENDTAB
  0
TABLE
  2
APPID
  5
9
100
AcDbSymbolTable
 70
1
  0
APPID
  5
12
100
AcDbSymbolTableRecord
100
AcDbRegAppTableRecord
  2
ACAD
 70
0
  0
ENDTAB
  0
TABLE
  2
DIMSTYLE
  5
A
100
AcDbSymbolTable
 70
1
100
AcDbDimStyleTable
 71
0
  0
DIMSTYLE
105
27
100
AcDbSymbolTableRecord
100
AcDbDimStyleTableRecord
  2
Standard
 41
3.302
 42
1.0
 43
3.75
 44
1.0
 70
0
 73
0
 74
0
 77
1
 78
8
140
3.5
141
2.5
143
0.03937007874016
147
1.524
171
3
172
1
271
2
272
2
274
3
278
44
283
0
284
8
340
11
  0
ENDTAB
  0
TABLE
  2
BLOCK_RECORD
  5
1
100
AcDbSymbolTable
 70
1
  0
BLOCK_RECORD
  5
1F
100
AcDbSymbolTableRecord
100
AcDbBlockTableRecord
  2
*Model_Space
340
22
  0
BLOCK_RECORD
  5
1B
100
AcDbSymbolTableRecord
100
AcDbBlockTableRecord
  2
*Paper_Space
340
1E
  0
BLOCK_RECORD
  5
23
100
AcDbSymbolTableRecord
100
AcDbBlockTableRecord
  2
*Paper_Space0
340
26
  0
ENDTAB
  0
ENDSEC
  0
SECTION
  2
BLOCKS
  0
BLOCK
  5
20
100
AcDbEntity
  8
0
100
AcDbBlockBegin
  2
*Model_Space
 70
0
 10
0.0
 20
0.0
 30
0.0
  3
*Model_Space
  1

  0
ENDBLK
  5
21
100
AcDbEntity
  8
0
100
AcDbBlockEnd
  0
BLOCK
  5
1C
100
AcDbEntity
 67
1
  8
0
100
AcDbBlockBegin
  2
*Paper_Space
 70
0
 10
0.0
 20
0.0
 30
0.0
  3
*Paper_Space
  1

  0
ENDBLK
  5
1D
100
AcDbEntity
 67
1
  8
0
100
AcDbBlockEnd
  0
BLOCK
  5
24
100
AcDbEntity
  8
0
100
AcDbBlockBegin
  2
*Paper_Space0
 70
0
 10
0.0
 20
0.0
 30
0.0
  3
*Paper_Space0
  1

  0
ENDBLK
  5
25
100
AcDbEntity
  8
0
100
AcDbBlockEnd
  0
ENDSEC
  0
SECTION
  2
ENTITIES
  0
ARC
  5
46
100
AcDbEntity
  8
1
 62
256
370
-1
  6
ByLayer
100
AcDbCircle
 10
-55.6581852077000008
 20
60.1495247925000029
 30
0.0
 40
5.9418726516258191
100
AcDbArc
 50
100.0623924849000019
 51
257.3244247118000203
  0
ARC
  5
47
100
AcDbEntity
  8
1
 62
256
370
-1
  6
ByLayer
100
AcDbCircle
 10
-59.1563154596999965
 20
44.5961846888000011
 30
0.0
 40
10.0000000000000995
100
AcDbArc
 50
35.094553643700003
 51
77.3244247117000043
  0
ARC
  5
48
100
AcDbEntity
  8
1
 62
256
370
-1
  6
ByLayer
100
AcDbCircle
 10
-31.0
 20
64.380776427300006
 30
0.0
 40
24.4123258516665906
100
AcDbArc
 50
215.0945536437000101
 51
337.0127754617000164
  0
ARC
  5
49
100
AcDbEntity
  8
1
 62
256
370
-1
  6
ByLayer
100
AcDbCircle
 10
0.6797102769
 20
50.9418729268000021
 30
0.0
 40
9.999999999999968
100
AcDbArc
 50
110.1527181251999963
 51
157.012775461699988
  0
ARC
  5
4A
100
AcDbEntity
  8
1
 62
256
370
-1
  6
ByLayer
100
AcDbCircle
 10
-3.7795228239999998
 20
63.0926463609999999
 30
0.0
 40
2.943185654917214
100
AcDbArc
 50
290.1527181252000105
 51
81.050350616299994
  0
LINE
  5
4B
100
AcDbEntity
100
AcDbLine
  8
1
 62
256
370
-1
  6
ByLayer
 10
-56.6963520799999969
 20
66.0
 30
0.0
 11
-47.5
 21
66.0
 31
0.0
  0
ARC
  5
4C
100
AcDbEntity
  8
1
 62
256
370
-1
  6
ByLayer
100
AcDbCircle
 10
-31.0
 20
66.0
 30
0.0
 40
16.5
100
AcDbArc
 50
180.0
 51
0.0
  0
LINE
  5
4D
100
AcDbEntity
100
AcDbLine
  8
1
 62
256
370
-1
  6
ByLayer
 10
-14.5
 20
66.0
 30
0.0
 11
-3.3216619093999999
 21
66.0
 31
0.0
  0
LINE
  5
4E
100
AcDbEntity
100
AcDbLine
  8
0
 62
256
370
-1
  6
CONTINUOUS
 10
-53.5000000000000071
 20
5.3477274072000114
 30
0.0
 11
-58.0000000000000071
 21
5.3477274072000114
 31
0.0
  0
LINE
  5
4F
100
AcDbEntity
100
AcDbLine
  8
0
 62
256
370
-1
  6
CONTINUOUS
 10
-60.0000000000000071
 20
7.3477274072000114
 30
0.0
 11
-60.0000000000000071
 21
42.9278135362000057
 31
0.0
  0
LINE
  5
50
100
AcDbEntity
100
AcDbLine
  8
0
 62
256
370
-1
  6
CONTINUOUS
 10
-58.0000000000000071
 20
44.9278135362000057
 30
0.0
 11
-53.5000000000000071
 21
44.9278135362000057
 31
0.0
  0
LINE
  5
51
100
AcDbEntity
100
AcDbLine
  8
0
 62
256
370
-1
  6
CONTINUOUS
 10
-27.4876319122000083
 20
21.7611704716999981
 30
0.0
 11
-27.4876319122000083
 21
28.5111704717000123
 31
0.0
  0
ARC
  5
52
100
AcDbEntity
  8
0
 62
256
370
-1
  6
CONTINUOUS
100
AcDbCircle
 10
-53.5000000000000071
 20
7.3477274072000114
 30
0.0
 40
1.9999999999999989
100
AcDbArc
 50
270.0
 51
0.0
  0
ARC
  5
53
100
AcDbEntity
  8
0
 62
256
370
-1
  6
CONTINUOUS
100
AcDbCircle
 10
-58.0000000000000071
 20
7.3477274072000114
 30
0.0
 40
2.0000000000000071
100
AcDbArc
 50
180.0
 51
270.0
  0
ARC
  5
54
100
AcDbEntity
  8
0
 62
256
370
-1
  6
CONTINUOUS
100
AcDbCircle
 10
-58.0000000000000071
 20
42.9278135362000057
 30
0.0
 40
2.0000000000000022
100
AcDbArc
 50
90.0
 51
180.0
  0
ARC
  5
55
100
AcDbEntity
  8
0
 62
256
370
-1
  6
CONTINUOUS
100
AcDbCircle
 10
-53.5000000000000071
 20
42.9278135362000057
 30
0.0
 40
2.0000000000000049
100
AcDbArc
 50
0.0
 51
90.0
  0
ARC
  5
56
100
AcDbEntity
  8
0
 62
256
370
-1
  6
CONTINUOUS
100
AcDbCircle
 10
-13.0987127823000016
 20
54.6063796681000184
 30
0.0
 40
9.9999999999998188
100
AcDbArc
 50
300.7504272474999993
 51
331.6272489689000054
  0
ARC
  5
57
100
AcDbEntity
  8
0
 62
256
370
-1
  6
CONTINUOUS
100
AcDbCircle
 10
0.1341938447999951
 20
0.6075022781000001
 30
0.0
 40
6.0065548784238949
100
AcDbArc
 50
192.4279316392000112
 51
347.5720683608000172
  0
ARC
  5
58
100
AcDbEntity
  8
0
 62
256
370
-1
  6
CONTINUOUS
100
AcDbCircle
 10
-15.4972871004000048
 20
-2.8372912619999937
 30
0.0
 40
9.9999999999999876
100
AcDbArc
 50
12.4279316392000005
 51
54.9829001672000004
  0
LINE
  5
59
100
AcDbEntity
100
AcDbLine
  8
0
 62
256
370
-1
  6
CONTINUOUS
 10
-50.5000000000000071
 20
31.1361704716999981
 30
0.0
 11
-51.0000000000000071
 21
31.1361704716999981
 31
0.0
  0
ARC
  5
5A
100
AcDbEntity
  8
0
 62
256
370
-1
  6
CONTINUOUS
100
AcDbCircle
 10
-50.5000000000000071
 20
31.6361704716999981
 30
0.0
 40
0.5000000000000071
100
AcDbArc
 50
270.0
 51
0.0
  0
LINE
  5
5B
100
AcDbEntity
100
AcDbLine
  8
0
 62
256
370
-1
  6
CONTINUOUS
 10
-51.0000000000000071
 20
19.1327704716999989
 30
0.0
 11
-50.5000000000000071
 21
19.1327704716999989
 31
0.0
  0
ARC
  5
5C
100
AcDbEntity
  8
0
 62
256
370
-1
  6
CONTINUOUS
100
AcDbCircle
 10
-50.5000000000000071
 20
18.6327704716999989
 30
0.0
 40
0.4999999999999947
100
AcDbArc
 50
0.0
 51
90.0
  0
ARC
  5
5D
100
AcDbEntity
  8
0
 62
256
370
-1
  6
CONTINUOUS
100
AcDbCircle
 10
-51.0000000000000071
 20
31.6361704716999981
 30
0.0
 40
0.5000000000000071
100
AcDbArc
 50
180.0
 51
270.0
  0
LINE
  5
5E
100
AcDbEntity
100
AcDbLine
  8
0
 62
256
370
-1
  6
CONTINUOUS
 10
-51.5000000000000071
 20
31.6361704716999981
 30
0.0
 11
-51.5000000000000071
 21
42.9278135362000057
 31
0.0
  0
LINE
  5
5F
100
AcDbEntity
100
AcDbLine
  8
0
 62
256
370
-1
  6
CONTINUOUS
 10
-51.5000000000000071
 20
18.6327704716999989
 30
0.0
 11
-51.5000000000000071
 21
7.3477274072000114
 31
0.0
  0
ARC
  5
60
100
AcDbEntity
  8
0
 62
256
370
-1
  6
CONTINUOUS
100
AcDbCircle
 10
-51.0000000000000071
 20
18.6327704716999989
 30
0.0
 40
0.4999999999999929
100
AcDbArc
 50
90.0
 51
180.0
  0
ARC
  5
61
100
AcDbEntity
  8
0
 62
256
370
-1
  6
CONTINUOUS
100
AcDbCircle
 10
4.1035072116000038
 20
25.1377704717000086
 30
0.0
 40
24.1583842806574296
100
AcDbArc
 50
211.8591770408820878
 51
234.982900167199972
  0
ARC
  5
62
100
AcDbEntity
  8
0
 62
256
370
-1
  6
CONTINUOUS
100
AcDbCircle
 10
4.913780672599998
 20
24.330613993500009
 30
0.0
 40
25.2288505013046489
100
AcDbArc
 50
120.7504272475000136
 51
147.4997173017500245
  0
LINE
  5
63
100
AcDbEntity
100
AcDbLine
  8
0
 62
256
370
-1
  6
CONTINUOUS
 10
-50.0000000000000071
 20
33.1361704716999981
 30
0.0
 11
-50.0000000000000071
 21
31.6361704716999981
 31
0.0
  0
ARC
  5
64
100
AcDbEntity
  8
0
 62
256
370
-1
  6
CONTINUOUS
100
AcDbCircle
 10
-49.5000000000000071
 20
33.1361704716999981
 30
0.0
 40
0.5000000000000036
100
AcDbArc
 50
90.0
 51
180.0
  0
ARC
  5
65
100
AcDbEntity
  8
0
 62
256
370
-1
  6
CONTINUOUS
100
AcDbCircle
 10
-49.5000000000000071
 20
17.1361704716999981
 30
0.0
 40
0.5000000000000071
100
AcDbArc
 50
180.0
 51
270.0
  0
LINE
  5
66
100
AcDbEntity
100
AcDbLine
  8
0
 62
256
370
-1
  6
CONTINUOUS
 10
-50.0000000000000071
 20
18.6327704716999989
 30
0.0
 11
-50.0000000000000071
 21
17.1361704716999981
 31
0.0
  0
ARC
  5
67
100
AcDbEntity
  8
0
 62
7
370
-1
  6
CONTINUOUS
100
AcDbCircle
 10
28.403815311215773
 20
-3.0185449879999737
 30
0.0
 40
10.0000000000000995
100
AcDbArc
 50
125.0945536437000101
 51
167.3244247117000043
  0
ARC
  5
68
100
AcDbEntity
  8
0
 62
7
370
-1
  6
CONTINUOUS
100
AcDbCircle
 10
12.850475207515764
 20
0.4795852640000078
 30
0.0
 40
5.9418726516258191
100
AcDbArc
 50
190.0623924849000161
 51
347.3244247118000203
  0
CIRCLE
  5
69
100
AcDbEntity
100
AcDbCircle
  8
2
 62
256
370
-1
  6
CONTINUOUS
 10
13.0000000000157669
 20
0.0
 30
0.0
 40
1.999999999999972
  0
LINE
  5
6A
100
AcDbEntity
100
AcDbLine
  8
0
 62
256
370
-1
  6
ByLayer
 10
5.999999999960262
 20
-0.6851769774006868
 30
0.0
 11
7.0000000000201457
 21
-0.5585816082406438
 31
0.0
  0
LINE
  5
6B
100
AcDbEntity
100
AcDbLine
  8
0
 62
256
370
-1
  6
CONTINUOUS
 10
-27.4876319122000083
 20
28.5111704717000123
 30
0.0
 11
-49.0000000000000071
 21
28.5111704717000123
 31
0.0
  0
LINE
  5
6C
100
AcDbEntity
100
AcDbLine
  8
0
 62
256
370
-1
  6
CONTINUOUS
 10
-49.0000000000000071
 20
21.7611704716999981
 30
0.0
 11
-27.4876319122000083
 21
21.7611704716999981
 31
0.0
  0
LINE
  5
6D
100
AcDbEntity
100
AcDbLine
  8
0
 62
256
370
-1
  6
ByLayer
 10
-49.0000000000000071
 20
28.5111704717000123
 30
0.0
 11
-49.0000000000000071
 21
21.7611704716999981
 31
0.0
  0
LINE
  5
6E
100
AcDbEntity
100
AcDbLine
  8
0
 62
256
370
-1
  6
ByLayer
 10
7.0000000000186473
 20
50.8161085623024462
 30
0.0
 11
6.0000000000233129
 21
50.8161085623024462
 31
0.0
  0
ARC
  5
6F
100
AcDbEntity
  8
0
 62
7
370
-1
  6
CONTINUOUS
100
AcDbCircle
 10
9.9073536390157813
 20
50.3582476476999972
 30
0.0
 40
2.943185654917214
100
AcDbArc
 50
18.4403988330274053
 51
171.050350616299994
  0
ARC
  5
70
100
AcDbEntity
  8
0
 62
7
370
-1
  6
CONTINUOUS
100
AcDbCircle
 10
8.6192235727157609
 20
25.1377704717000086
 30
0.0
 40
24.4123258516665906
100
AcDbArc
 50
305.0945536437000101
 51
74.0856497524798385
  0
ARC
  5
71
100
AcDbEntity
  8
0
 62
256
370
-1
  6
ByLayer
100
AcDbCircle
 10
16.563565710765225
 20
52.4507090076752078
 30
0.0
 40
4.0349330300892783
100
AcDbArc
 50
196.7296274757148637
 51
251.9459815785053536
  0
CIRCLE
  5
72
100
AcDbEntity
100
AcDbCircle
  8
0
 62
256
370
-1
  6
CONTINUOUS
 10
2.0
 20
55.2748677187000084
 30
0.0
 40
0.4999999999997682
  0
LINE
  5
73
100
AcDbEntity
100
AcDbLine
  8
0
 62
256
370
-1
  6
ByLayer
 10
6.0000000000233129
 20
55.6316344364875448
 30
0.0
 11
6.0000000000233129
 21
50.8161085623024462
 31
0.0
  0
LINE
  5
74
100
AcDbEntity
100
AcDbLine
  8
0
 62
256
370
-1
  6
ByLayer
 10
-4.2999660548063883
 20
49.8543215849725811
 30
0.0
 11
-0.6657332107981251
 21
57.7743861623110462
 31
0.0
  0
ARC
  5
75
100
AcDbEntity
  8
0
 62
256
370
-1
  6
CONTINUOUS
100
AcDbCircle
 10
2.1030042414000008
 20
54.948101232500008
 30
0.0
 40
3.9564875310913781
100
AcDbArc
 50
9.9484833999000362
 51
134.4107063209550006
  0
LINE
  5
76
100
AcDbEntity
100
AcDbLine
  8
0
 62
256
370
-1
  6
CONTINUOUS
 10
-22.5000000000000071
 20
5.3477274072000114
 30
0.0
 11
-27.0000000000000071
 21
5.3477274072000114
 31
0.0
  0
LINE
  5
77
100
AcDbEntity
100
AcDbLine
  8
0
 62
256
370
-1
  6
CONTINUOUS
 10
-27.0000000000000071
 20
44.9278135362000057
 30
0.0
 11
-22.5000000000000071
 21
44.9278135362000057
 31
0.0
  0
ARC
  5
78
100
AcDbEntity
  8
0
 62
256
370
-1
  6
CONTINUOUS
100
AcDbCircle
 10
-22.5000000000000071
 20
7.3477274072000114
 30
0.0
 40
2.0000000000000071
100
AcDbArc
 50
270.0
 51
0.0
  0
ARC
  5
79
100
AcDbEntity
  8
0
 62
256
370
-1
  6
CONTINUOUS
100
AcDbCircle
 10
-27.0000000000000071
 20
7.3477274072000114
 30
0.0
 40
2.0000000000000071
100
AcDbArc
 50
180.0
 51
270.0
  0
ARC
  5
7A
100
AcDbEntity
  8
0
 62
256
370
-1
  6
CONTINUOUS
100
AcDbCircle
 10
-27.0000000000000071
 20
42.9278135362000057
 30
0.0
 40
2.0000000000000022
100
AcDbArc
 50
90.0
 51
180.0
  0
ARC
  5
7B
100
AcDbEntity
  8
0
 62
256
370
-1
  6
CONTINUOUS
100
AcDbCircle
 10
-22.5000000000000071
 20
42.9278135362000057
 30
0.0
 40
2.0
100
AcDbArc
 50
0.0
 51
90.0
  0
LINE
  5
7C
100
AcDbEntity
100
AcDbLine
  8
0
 62
256
370
-1
  6
CONTINUOUS
 10
-29.5000000000000071
 20
31.1361704716999981
 30
0.0
 11
-30.0000000000000071
 21
31.1361704716999981
 31
0.0
  0
ARC
  5
7D
100
AcDbEntity
  8
0
 62
256
370
-1
  6
CONTINUOUS
100
AcDbCircle
 10
-30.0000000000000071
 20
31.6361704716999981
 30
0.0
 40
0.5000000000000036
100
AcDbArc
 50
180.0
 51
270.0
  0
LINE
  5
7E
100
AcDbEntity
100
AcDbLine
  8
0
 62
256
370
-1
  6
CONTINUOUS
 10
-30.0000000000000071
 20
19.1327704716999989
 30
0.0
 11
-29.5000000000000071
 21
19.1327704716999989
 31
0.0
  0
ARC
  5
7F
100
AcDbEntity
  8
0
 62
256
370
-1
  6
CONTINUOUS
100
AcDbCircle
 10
-30.0000000000000071
 20
18.6327704716999989
 30
0.0
 40
0.4999999999999893
100
AcDbArc
 50
90.0
 51
180.0
  0
LINE
  5
80
100
AcDbEntity
100
AcDbLine
  8
0
 62
256
370
-1
  6
CONTINUOUS
 10
-29.0000000000000071
 20
42.9278135362000057
 30
0.0
 11
-29.0000000000000071
 21
31.6361704716999981
 31
0.0
  0
ARC
  5
81
100
AcDbEntity
  8
0
 62
256
370
-1
  6
CONTINUOUS
100
AcDbCircle
 10
-29.5000000000000071
 20
31.6361704716999981
 30
0.0
 40
0.5000000000000071
100
AcDbArc
 50
270.0
 51
0.0
  0
LINE
  5
82
100
AcDbEntity
100
AcDbLine
  8
0
 62
256
370
-1
  6
CONTINUOUS
 10
-29.0000000000000071
 20
7.3477274072000114
 30
0.0
 11
-29.0000000000000071
 21
18.6327704716999989
 31
0.0
  0
ARC
  5
83
100
AcDbEntity
  8
0
 62
256
370
-1
  6
CONTINUOUS
100
AcDbCircle
 10
-29.5000000000000071
 20
18.6327704716999989
 30
0.0
 40
0.4999999999999929
100
AcDbArc
 50
0.0
 51
90.0
  0
LINE
  5
84
100
AcDbEntity
100
AcDbLine
  8
0
 62
256
370
-1
  6
CONTINUOUS
 10
-20.5000000000000036
 20
7.3477274072000114
 30
0.0
 11
-20.5000000000000036
 21
18.1277704717000034
 31
0.0
  0
LINE
  5
85
100
AcDbEntity
100
AcDbLine
  8
0
 62
256
370
-1
  6
CONTINUOUS
 10
-20.5000000000000036
 20
32.1511704717000129
 30
0.0
 11
-20.5000000000000036
 21
42.9278135362000057
 31
0.0
  0
LINE
  5
86
100
AcDbEntity
100
AcDbLine
  8
0
 62
256
370
-1
  6
CONTINUOUS
 10
-30.5000000000000071
 20
31.6361704716999981
 30
0.0
 11
-30.5000000000000071
 21
33.1361704716999981
 31
0.0
  0
LINE
  5
87
100
AcDbEntity
100
AcDbLine
  8
0
 62
256
370
-1
  6
CONTINUOUS
 10
-30.5000000000000071
 20
17.1361704716999981
 30
0.0
 11
-30.5000000000000071
 21
18.6327704716999989
 31
0.0
  0
LINE
  5
88
100
AcDbEntity
100
AcDbLine
  8
0
 62
256
370
-1
  6
CONTINUOUS
 10
-19.5000000000000036
 20
31.6511704717000129
 30
0.0
 11
-20.0000000000000036
 21
31.6511704717000129
 31
0.0
  0
ARC
  5
89
100
AcDbEntity
  8
0
 62
256
370
-1
  6
CONTINUOUS
100
AcDbCircle
 10
-20.0000000000000036
 20
32.1511704717000129
 30
0.0
 40
0.5000000000000036
100
AcDbArc
 50
180.0
 51
270.0
  0
ARC
  5
8A
100
AcDbEntity
  8
0
 62
256
370
-1
  6
CONTINUOUS
100
AcDbCircle
 10
-19.5000000000000036
 20
32.1511704717000129
 30
0.0
 40
0.5000000000000071
100
AcDbArc
 50
270.0
 51
0.0
  0
LINE
  5
8B
100
AcDbEntity
100
AcDbLine
  8
0
 62
256
370
-1
  6
CONTINUOUS
 10
-20.0000000000000036
 20
18.6277704717000034
 30
0.0
 11
-19.5000000000000036
 21
18.6277704717000034
 31
0.0
  0
ARC
  5
8C
100
AcDbEntity
  8
0
 62
256
370
-1
  6
CONTINUOUS
100
AcDbCircle
 10
-20.0000000000000036
 20
18.1277704717000034
 30
0.0
 40
0.4999999999999893
100
AcDbArc
 50
90.0
 51
180.0
  0
ARC
  5
8D
100
AcDbEntity
  8
0
 62
256
370
-1
  6
CONTINUOUS
100
AcDbCircle
 10
-19.5000000000000036
 20
18.1277704717000034
 30
0.0
 40
0.4999999999999929
100
AcDbArc
 50
0.0
 51
90.0
  0
LINE
  5
8E
100
AcDbEntity
100
AcDbLine
  8
0
 62
256
370
-1
  6
CONTINUOUS
 10
-49.5000000000000071
 20
33.6361704716999981
 30
0.0
 11
-31.0000000000000071
 21
33.6361704716999981
 31
0.0
  0
ARC
  5
8F
100
AcDbEntity
  8
0
 62
256
370
-1
  6
CONTINUOUS
100
AcDbCircle
 10
-31.0000000000000071
 20
33.1361704716999981
 30
0.0
 40
0.5000000000000071
100
AcDbArc
 50
0.0
 51
90.0
  0
LINE
  5
90
100
AcDbEntity
100
AcDbLine
  8
0
 62
256
370
-1
  6
CONTINUOUS
 10
-31.0000000000000071
 20
16.6361704716999981
 30
0.0
 11
-49.5000000000000071
 21
16.6361704716999981
 31
0.0
  0
ARC
  5
91
100
AcDbEntity
  8
0
 62
256
370
-1
  6
CONTINUOUS
100
AcDbCircle
 10
-31.0000000000000071
 20
17.1361704716999981
 30
0.0
 40
0.5000000000000142
100
AcDbArc
 50
270.0
 51
0.0
  0
LINE
  5
92
100
AcDbEntity
100
AcDbLine
  8
0
 62
256
370
-1
  6
CONTINUOUS
 10
-19.0000000000000036
 20
18.1277704717000034
 30
0.0
 11
-19.0000000000000036
 21
12.3861704716999981
 31
0.0
  0
LINE
  5
93
100
AcDbEntity
100
AcDbLine
  8
0
 62
256
370
-1
  6
ByLayer
 10
-19.0000000000000036
 20
12.3861704716999981
 30
0.0
 11
-16.4153677208107887
 21
12.3861704716999981
 31
0.0
  0
LINE
  5
94
100
AcDbEntity
100
AcDbLine
  8
0
 62
256
370
-1
  6
CONTINUOUS
 10
-19.0000000000000036
 20
37.8861704716999981
 30
0.0
 11
-19.0000000000000036
 21
32.1511704717000129
 31
0.0
  0
LINE
  5
95
100
AcDbEntity
100
AcDbLine
  8
0
 62
256
370
-1
  6
ByLayer
 10
-19.0000000000000036
 20
37.8861704716999981
 30
0.0
 11
-16.3639491448290677
 21
37.8861704716999981
 31
0.0
  0
CIRCLE
  5
96
100
AcDbEntity
100
AcDbCircle
  8
1
 62
256
370
-1
  6
ByLayer
 10
9.9073536390157813
 20
50.3582476476999972
 30
0.0
 40
2.9431856549172131
  0
LINE
  5
97
100
AcDbEntity
100
AcDbLine
  8
1
 62
256
370
-1
  6
ByLayer
 10
12.8505392939329948
 20
50.3582476476999972
 30
0.0
 11
6.9641679840985677
 21
50.3582476476999972
 31
0.0
  0
ARC
  5
98
100
AcDbEntity
  8
bitprofile
 62
256
370
-1
  6
ByLayer
100
AcDbCircle
 10
8.6192235727157609
 20
25.1377704717000086
 30
0.0
 40
25.4123258516665906
100
AcDbArc
 50
305.0945536437000101
 51
74.0856497524798385
  0
ARC
  5
99
100
AcDbEntity
  8
bitprofile
 62
256
370
-1
  6
ByLayer
100
AcDbCircle
 10
16.563565710765225
 20
52.4507090076752078
 30
0.0
 40
3.0349330300892783
100
AcDbArc
 50
196.7296274757148637
 51
251.9459815785053536
  0
ARC
  5
9A
100
AcDbEntity
  8
bitprofile
 62
256
370
-1
  6
ByLayer
100
AcDbCircle
 10
9.9073536390157813
 20
50.3582476476999972
 30
0.0
 40
3.943185654917214
100
AcDbArc
 50
18.4403988330274053
 51
171.050350616299994
  0
LINE
  5
9B
100
AcDbEntity
100
AcDbLine
  8
bitprofile
 62
256
370
-1
  6
ByLayer
 10
7.0000000000233129
 20
55.6316344364875448
 30
0.0
 11
7.0000000000233129
 21
50.8161085623024462
 31
0.0
  0
ARC
  5
9C
100
AcDbEntity
  8
bitprofile
 62
256
370
-1
  6
ByLayer
100
AcDbCircle
 10
2.1030042414000008
 20
54.948101232500008
 30
0.0
 40
4.9564875310913781
100
AcDbArc
 50
9.9484833999000362
 51
134.4107063209550006
  0
LINE
  5
9D
100
AcDbEntity
100
AcDbLine
  8
bitprofile
 62
256
370
-1
  6
ByLayer
 10
-5.2088480918994708
 20
50.2713748701167304
 30
0.0
 11
-1.5746152478912081
 21
58.1914394474551955
 31
0.0
  0
ARC
  5
9E
100
AcDbEntity
  8
bitprofile
 62
256
370
-1
  6
ByLayer
100
AcDbCircle
 10
-13.0987127823000016
 20
54.6063796681000184
 30
0.0
 40
8.9999999999998188
100
AcDbArc
 50
300.7504272474999993
 51
331.6272489689000054
  0
ARC
  5
9F
100
AcDbEntity
  8
bitprofile
 62
256
370
-1
  6
ByLayer
100
AcDbCircle
 10
4.913780672599998
 20
24.330613993500009
 30
0.0
 40
26.2288505013046489
100
AcDbArc
 50
120.7504272475000136
 51
147.4997173017500245
  0
LINE
  5
A0
100
AcDbEntity
100
AcDbLine
  8
bitprofile
 62
256
370
-1
  6
ByLayer
 10
-19.0000000000000036
 20
38.8861704716999981
 30
0.0
 11
-16.3639491448290677
 21
38.8861704716999981
 31
0.0
  0
LINE
  5
A1
100
AcDbEntity
100
AcDbLine
  8
bitprofile
 62
256
370
-1
  6
ByLayer
 10
-19.5000000000000036
 20
32.1511704717000129
 30
0.0
 11
-19.5000000000000036
 21
42.9278135362000057
 31
0.0
  0
ARC
  5
A2
100
AcDbEntity
  8
bitprofile
 62
256
370
-1
  6
ByLayer
100
AcDbCircle
 10
-22.5000000000000071
 20
42.9278135362000057
 30
0.0
 40
3.0
100
AcDbArc
 50
0.0
 51
90.0
  0
LINE
  5
A3
100
AcDbEntity
100
AcDbLine
  8
bitprofile
 62
256
370
-1
  6
ByLayer
 10
-27.0000000000000071
 20
45.9278135362000057
 30
0.0
 11
-22.5000000000000071
 21
45.9278135362000057
 31
0.0
  0
ARC
  5
A4
100
AcDbEntity
  8
bitprofile
 62
256
370
-1
  6
ByLayer
100
AcDbCircle
 10
-27.0000000000000071
 20
42.9278135362000057
 30
0.0
 40
3.0000000000000022
100
AcDbArc
 50
90.0
 51
180.0
  0
LINE
  5
A5
100
AcDbEntity
100
AcDbLine
  8
bitprofile
 62
256
370
-1
  6
ByLayer
 10
-30.0000000000000071
 20
42.9278135362000057
 30
0.0
 11
-30.0000000000000071
 21
31.6361704716999981
 31
0.0
  0
LINE
  5
A6
100
AcDbEntity
100
AcDbLine
  8
bitprofile
 62
256
370
-1
  6
ByLayer
 10
-49.5000000000000071
 20
34.6361704716999981
 30
0.0
 11
-31.0000000000000071
 21
34.6361704716999981
 31
0.0
  0
LINE
  5
A7
100
AcDbEntity
100
AcDbLine
  8
bitprofile
 62
256
370
-1
  6
ByLayer
 10
-50.5000000000000071
 20
31.6361704716999981
 30
0.0
 11
-50.5000000000000071
 21
42.9278135362000057
 31
0.0
  0
ARC
  5
A8
100
AcDbEntity
  8
bitprofile
 62
256
370
-1
  6
ByLayer
100
AcDbCircle
 10
-53.5000000000000071
 20
42.9278135362000057
 30
0.0
 40
3.0000000000000049
100
AcDbArc
 50
0.0
 51
90.0
  0
LINE
  5
A9
100
AcDbEntity
100
AcDbLine
  8
bitprofile
 62
256
370
-1
  6
ByLayer
 10
-58.0000000000000071
 20
45.9278135362000057
 30
0.0
 11
-53.5000000000000071
 21
45.9278135362000057
 31
0.0
  0
ARC
  5
AA
100
AcDbEntity
  8
bitprofile
 62
256
370
-1
  6
ByLayer
100
AcDbCircle
 10
-58.0000000000000071
 20
42.9278135362000057
 30
0.0
 40
3.0000000000000022
100
AcDbArc
 50
90.0
 51
180.0
  0
LINE
  5
AB
100
AcDbEntity
100
AcDbLine
  8
bitprofile
 62
256
370
-1
  6
ByLayer
 10
-61.0000000000000071
 20
7.3477274072000114
 30
0.0
 11
-61.0000000000000071
 21
42.9278135362000057
 31
0.0
  0
ARC
  5
AC
100
AcDbEntity
  8
bitprofile
 62
256
370
-1
  6
ByLayer
100
AcDbCircle
 10
-58.0000000000000071
 20
7.3477274072000114
 30
0.0
 40
3.0000000000000071
100
AcDbArc
 50
180.0
 51
270.0
  0
LINE
  5
AD
100
AcDbEntity
100
AcDbLine
  8
bitprofile
 62
256
370
-1
  6
ByLayer
 10
-53.5000000000000071
 20
4.3477274072000114
 30
0.0
 11
-58.0000000000000071
 21
4.3477274072000114
 31
0.0
  0
LINE
  5
AE
100
AcDbEntity
100
AcDbLine
  8
bitprofile
 62
256
370
-1
  6
ByLayer
 10
-50.5000000000000071
 20
18.6327704716999989
 30
0.0
 11
-50.5000000000000071
 21
7.3477274072000114
 31
0.0
  0
ARC
  5
AF
100
AcDbEntity
  8
bitprofile
 62
256
370
-1
  6
ByLayer
100
AcDbCircle
 10
-53.5000000000000071
 20
7.3477274072000114
 30
0.0
 40
2.9999999999999991
100
AcDbArc
 50
270.0
 51
0.0
  0
LINE
  5
B0
100
AcDbEntity
100
AcDbLine
  8
bitprofile
 62
256
370
-1
  6
ByLayer
 10
-31.0000000000000071
 20
15.6361704716999981
 30
0.0
 11
-49.5000000000000071
 21
15.6361704716999981
 31
0.0
  0
LINE
  5
B1
100
AcDbEntity
100
AcDbLine
  8
bitprofile
 62
256
370
-1
  6
ByLayer
 10
-30.0000000000000071
 20
7.3477274072000114
 30
0.0
 11
-30.0000000000000071
 21
18.6327704716999989
 31
0.0
  0
ARC
  5
B2
100
AcDbEntity
  8
bitprofile
 62
256
370
-1
  6
ByLayer
100
AcDbCircle
 10
-27.0000000000000071
 20
7.3477274072000114
 30
0.0
 40
3.0000000000000071
100
AcDbArc
 50
180.0
 51
270.0
  0
LINE
  5
B3
100
AcDbEntity
100
AcDbLine
  8
bitprofile
 62
256
370
-1
  6
ByLayer
 10
-22.5000000000000071
 20
4.3477274072000114
 30
0.0
 11
-27.0000000000000071
 21
4.3477274072000114
 31
0.0
  0
ARC
  5
B4
100
AcDbEntity
  8
bitprofile
 62
256
370
-1
  6
ByLayer
100
AcDbCircle
 10
-22.5000000000000071
 20
7.3477274072000114
 30
0.0
 40
3.0000000000000071
100
AcDbArc
 50
270.0
 51
0.0
  0
LINE
  5
B5
100
AcDbEntity
100
AcDbLine
  8
bitprofile
 62
256
370
-1
  6
ByLayer
 10
-19.5000000000000036
 20
7.3477274072000114
 30
0.0
 11
-19.5000000000000036
 21
18.1277704717000034
 31
0.0
  0
LINE
  5
B6
100
AcDbEntity
100
AcDbLine
  8
bitprofile
 62
256
370
-1
  6
ByLayer
 10
-19.0000000000000036
 20
11.3861704716999981
 30
0.0
 11
-16.4153677208107887
 21
11.3861704716999981
 31
0.0
  0
ARC
  5
B7
100
AcDbEntity
  8
bitprofile
 62
256
370
-1
  6
ByLayer
100
AcDbCircle
 10
4.1035072116000038
 20
25.1377704717000086
 30
0.0
 40
25.1583842806574296
100
AcDbArc
 50
211.8591770408820878
 51
234.982900167199972
  0
ARC
  5
B8
100
AcDbEntity
  8
bitprofile
 62
256
370
-1
  6
ByLayer
100
AcDbCircle
 10
-15.4972871004000048
 20
-2.8372912619999937
 30
0.0
 40
8.9999999999999876
100
AcDbArc
 50
12.4279316392000005
 51
54.9829001672000004
  0
ARC
  5
B9
100
AcDbEntity
  8
bitprofile
 62
256
370
-1
  6
ByLayer
100
AcDbCircle
 10
0.1341938447999951
 20
0.6075022781000001
 30
0.0
 40
7.0065548784238949
100
AcDbArc
 50
192.4279316392000112
 51
347.5720683608000172
  0
ARC
  5
BA
100
AcDbEntity
  8
bitprofile
 62
256
370
-1
  6
ByLayer
100
AcDbCircle
 10
12.850475207515764
 20
0.4795852640000078
 30
0.0
 40
6.9418726516258191
100
AcDbArc
 50
190.0623924849000161
 51
347.3244247118000203
  0
ARC
  5
BB
100
AcDbEntity
  8
bitprofile
 62
256
370
-1
  6
ByLayer
100
AcDbCircle
 10
28.403815311215773
 20
-3.0185449879999737
 30
0.0
 40
9.0000000000000995
100
AcDbArc
 50
125.0945536437000101
 51
167.3244247117000043
  0
ARC
  5
BC
100
AcDbEntity
  8
0
 62
256
370
-1
  6
CONTINUOUS
100
AcDbCircle
 10
6.0447397636999938
 20
25.1377704717000086
 30
0.0
 40
15.0000667214001098
100
AcDbArc
 50
117.6351363346918646
 51
242.3648636653081212
  0
ARC
  5
BD
100
AcDbEntity
  8
0
 62
7
370
-1
  6
CONTINUOUS
100
AcDbCircle
 10
6.9552602363157874
 20
25.1377704717000086
 30
0.0
 40
15.0000667214001098
100
AcDbArc
 50
297.6351363346918788
 51
62.3648636653081567
  0
CIRCLE
  5
BE
100
AcDbEntity
100
AcDbCircle
  8
0
 62
256
370
-1
  6
CONTINUOUS
 10
-0.5
 20
0.0
 30
0.0
 40
1.999999999999986
  0
CIRCLE
  5
BF
100
AcDbEntity
100
AcDbCircle
  8
0
 62
256
370
-1
  6
CONTINUOUS
 10
13.0
 20
0.0
 30
0.0
 40
1.999999999999986
  0
LINE
  5
C0
100
AcDbEntity
100
AcDbLine
  8
0
 62
256
370
-1
  6
ByLayer
 10
-0.9128822989530642
 20
38.4266190628962576
 30
0.0
 11
6.0361605923653361
 21
42.0649187848894783
 31
0.0
  0
LINE
  5
C1
100
AcDbEntity
100
AcDbLine
  8
0
 62
256
370
-1
  6
ByLayer
 10
13.9128822989688459
 20
38.4266190628962647
 30
0.0
 11
6.9638394076504513
 21
42.0649187848894783
 31
0.0
  0
ARC
  5
C2
100
AcDbEntity
  8
0
 62
256
370
-1
  6
ByLayer
100
AcDbCircle
 10
6.5000000000078932
 20
41.1789994861281272
 30
0.0
 40
1.0
100
AcDbArc
 50
62.364863665308107
 51
117.6351363346918504
  0
LINE
  5
C3
100
AcDbEntity
100
AcDbLine
  8
0
 62
256
370
-1
  6
ByLayer
 10
-0.9128822989530718
 20
11.8489218805037648
 30
0.0
 11
6.0361605923653263
 21
8.2106221585105406
 31
0.0
  0
LINE
  5
C4
100
AcDbEntity
100
AcDbLine
  8
0
 62
256
370
-1
  6
ByLayer
 10
13.9128822989688405
 20
11.8489218805037595
 30
0.0
 11
6.9638394076504389
 21
8.2106221585105423
 31
0.0
  0
ARC
  5
C5
100
AcDbEntity
  8
0
 62
256
370
-1
  6
ByLayer
100
AcDbCircle
 10
6.5000000000078835
 20
9.0965414572718917
 30
0.0
 40
1.0
100
AcDbArc
 50
242.3648636653081212
 51
297.635136334691822
  0
ENDSEC
  0
SECTION
  2
OBJECTS
  0
DICTIONARY
  5
C
100
AcDbDictionary
280
0
281
1
  3
ACAD_GROUP
350
D
  3
ACAD_LAYOUT
350
1A
  3
ACAD_MLINESTYLE
350
17
  3
ACAD_PLOTSETTINGS
350
19
  3
ACAD_PLOTSTYLENAME
350
E
  3
AcDbVariableDictionary
350
C6
  0
DICTIONARY
  5
D
100
AcDbDictionary
280
0
281
1
  0
ACDBDICTIONARYWDFLT
  5
E
100
AcDbDictionary
281
1
  3
Normal
350
F
100
AcDbDictionaryWithDefault
340
F
  0
ACDBPLACEHOLDER
  5
F
  0
DICTIONARY
  5
17
100
AcDbDictionary
280
0
281
1
  3
Standard
350
18
  0
MLINESTYLE
  5
18
100
AcDbMlineStyle
  2
STANDARD
 70
0
  3

 62
256
 51
90.0
 52
90.0
 71
2
 49
0.5
 62
256
  6
BYLAYER
 49
-0.5
 62
256
  6
BYLAYER
  0
DICTIONARY
  5
19
100
AcDbDictionary
280
0
281
1
  0
DICTIONARY
  5
1A
100
AcDbDictionary
281
1
  3
Layout1
350
1E
  3
Layout2
350
26
  3
Model
350
22
  0
LAYOUT
  5
1E
100
AcDbPlotSettings
  1

  2
C:\Program Files\AutoCAD 2002\plotters\DWF ePlot (optimized for plotting).pc3
  4

  6

 40
0.0
 41
0.0
 42
0.0
 43
0.0
 44
0.0
 45
0.0
 46
0.0
 47
0.0
 48
0.0
 49
0.0
140
0.0
141
0.0
142
1.0
143
1.0
 70
688
 72
0
 73
0
 74
5
  7

 75
16
147
1.0
148
0.0
149
0.0
100
AcDbLayout
  1
Layout1
 70
1
 71
1
 10
0.0
 20
0.0
 11
420.0
 21
297.0
 12
0.0
 22
0.0
 32
0.0
 14
100000000000000000000.0
 24
100000000000000000000.0
 34
100000000000000000000.0
 15
-100000000000000000000.0
 25
-100000000000000000000.0
 35
-100000000000000000000.0
146
0.0
 13
0.0
 23
0.0
 33
0.0
 16
1.0
 26
0.0
 36
0.0
 17
0.0
 27
1.0
 37
0.0
 76
0
330
1B
  0
LAYOUT
  5
22
100
AcDbPlotSettings
  1

  2
C:\Program Files\AutoCAD 2002\plotters\DWF ePlot (optimized for plotting).pc3
  4

  6

 40
0.0
 41
0.0
 42
0.0
 43
0.0
 44
0.0
 45
0.0
 46
0.0
 47
0.0
 48
0.0
 49
0.0
140
0.0
141
0.0
142
1.0
143
1.0
 70
1712
 72
0
 73
0
 74
0
  7

 75
0
147
1.0
148
0.0
149
0.0
100
AcDbLayout
  1
Model
 70
1
 71
0
 10
0.0
 20
0.0
 11
12.0
 21
9.0
 12
0.0
 22
0.0
 32
0.0
 14
0.0
 24
0.0
 34
0.0
 15
0.0
 25
0.0
 35
0.0
146
0.0
 13
0.0
 23
0.0
 33
0.0
 16
1.0
 26
0.0
 36
0.0
 17
0.0
 27
1.0
 37
0.0
 76
0
330
1F
  0
LAYOUT
  5
26
100
AcDbPlotSettings
  1

  2
C:\Program Files\AutoCAD 2002\plotters\DWF ePlot (optimized for plotting).pc3
  4

  6

 40
0.0
 41
0.0
 42
0.0
 43
0.0
 44
0.0
 45
0.0
 46
0.0
 47
0.0
 48
0.0
 49
0.0
140
0.0
141
0.0
142
1.0
143
1.0
 70
688
 72
0
 73
0
 74
5
  7

 75
16
147
1.0
148
0.0
149
0.0
100
AcDbLayout
  1
Layout2
 70
1
 71
2
 10
0.0
 20
0.0
 11
12.0
 21
9.0
 12
0.0
 22
0.0
 32
0.0
 14
0.0
 24
0.0
 34
0.0
 15
0.0
 25
0.0
 35
0.0
146
0.0
 13
0.0
 23
0.0
 33
0.0
 16
1.0
 26
0.0
 36
0.0
 17
0.0
 27
1.0
 37
0.0
 76
0
330
23
  0
DICTIONARY
  5
C6
100
AcDbDictionary
281
1
  3
DIMASSOC
350
C8
  3
HIDETEXT
350
C7
  0
DICTIONARYVAR
  5
C7
100
DictionaryVariables
280
0
  1
2
  0
DICTIONARYVAR
  5
C8
100
DictionaryVariables
280
0
  1
1
  0
ENDSEC
  0
EOF
