999
dxfrw 0.6.3
  0
SECTION
  2
HEADER
  9
$ACADVER
  1
AC1021
  9
$DWGCODEPAGE
  3
ANSI_1252
  9
$INSBASE
 10
0
 20
0
 30
0
  9
$EXTMIN
 10
-89.36869495318567
 20
-76.65959953740574
 30
0
  9
$EXTMAX
 10
30.63130504681433
 20
43.34040046259426
 30
0
  9
$LIMMIN
 10
0
 20
0
  9
$LIMMAX
 10
420
 20
297
  9
$ORTHOMODE
 70
    0
  9
$REGENMODE
 70
    1
  9
$FILLMODE
 70
    1
  9
$QTEXTMODE
 70
    0
  9
$MIRRTEXT
 70
    0
  9
$LTSCALE
 40
1
  9
$ATTMODE
 70
    0
  9
$TEXTSIZE
 40
2.5
  9
$TRACEWID
 40
15.68
  9
$TEXTSTYLE
  7
STANDARD
  9
$CLAYER
  8
0
  9
$CELTYPE
  6
BYLAYER
  9
$CECOLOR
 62
  256
  9
$CELTSCALE
 40
1
  9
$DISPSILH
 70
    0
  9
$DIMSCALE
 40
2.5
  9
$DIMASZ
 40
2.5
  9
$DIMEXO
 40
0.625
  9
$DIMDLI
 40
3.75
  9
$DIMRND
 40
0
  9
$DIMDLE
 40
0
  9
$DIMEXE
 40
1.25
  9
$DIMTP
 40
0
  9
$DIMTM
 40
0
  9
$DIMTXT
 40
2.5
  9
$DIMCEN
 40
2.5
  9
$DIMTSZ
 40
0
  9
$DIMTOL
 70
    0
  9
$DIMLIM
 70
    0
  9
$DIMTIH
 70
    0
  9
$DIMTOH
 70
    0
  9
$DIMSE1
 70
    0
  9
$DIMSE2
 70
    0
  9
$DIMTAD
 70
    1
  9
$DIMZIN
 70
    8
  9
$DIMBLK
  1

  9
$DIMASO
 70
    1
  9
$DIMSHO
 70
    1
  9
$DIMPOST
  1

  9
$DIMAPOST
  1

  9
$DIMALT
 70
    0
  9
$DIMALTD
 70
    3
  9
$DIMALTF
 40
0.03937
  9
$DIMLFAC
 40
1
  9
$DIMTOFL
 70
    1
  9
$DIMTVP
 40
0
  9
$DIMTIX
 70
    0
  9
$DIMSOXD
 70
    0
  9
$DIMSAH
 70
    0
  9
$DIMBLK1
  1

  9
$DIMBLK2
  1

  9
$DIMSTYLE
  2
Standard
  9
$DIMCLRD
 70
    0
  9
$DIMCLRE
 70
    0
  9
$DIMCLRT
 70
    0
  9
$DIMTFAC
 40
1
  9
$DIMGAP
 40
0.625
  9
$DIMJUST
 70
    0
  9
$DIMSD1
 70
    0
  9
$DIMSD2
 70
    0
  9
$DIMTOLJ
 70
    0
  9
$DIMTZIN
 70
    8
  9
$DIMALTZ
 70
    0
  9
$DIMALTTZ
 70
    0
  9
$DIMUPT
 70
    0
  9
$DIMDEC
 70
    2
  9
$DIMTDEC
 70
    2
  9
$DIMALTU
 70
    2
  9
$DIMALTTD
 70
    3
  9
$DIMTXSTY
  7
STANDARD
  9
$DIMAUNIT
 70
    0
  9
$DIMADEC
 70
    0
  9
$DIMALTRND
 40
0
  9
$DIMAZIN
 70
    0
  9
$DIMDSEP
 70
   44
  9
$DIMATFIT
 70
    3
  9
$DIMFRAC
 70
    0
  9
$DIMLDRBLK
  1
STANDARD
  9
$DIMLUNIT
 70
    2
  9
$DIMLWD
 70
   -2
  9
$DIMLWE
 70
   -2
  9
$DIMTMOVE
 70
    0
  9
$DIMFXL
 40
1
  9
$DIMFXLON
 70
    0
  9
$DIMJOGANG
 40
0.7854
  9
$DIMTFILL
 70
    0
  9
$DIMTFILLCLR
 70
    0
  9
$DIMARCSYM
 70
    0
  9
$DIMLTYPE
  6

  9
$DIMLTEX1
  6

  9
$DIMLTEX2
  6

  9
$LUNITS
 70
    2
  9
$LUPREC
 70
    4
  9
$SKETCHINC
 40
1
  9
$FILLETRAD
 40
0
  9
$AUNITS
 70
    0
  9
$AUPREC
 70
    2
  9
$MENU
  1
.
  9
$ELEVATION
 40
0
  9
$PELEVATION
 40
0
  9
$THICKNESS
 40
0
  9
$LIMCHECK
 70
    0
  9
$CHAMFERA
 40
0
  9
$CHAMFERB
 40
0
  9
$CHAMFERC
 40
0
  9
$CHAMFERD
 40
0
  9
$SKPOLY
 70
    0
  9
$USRTIMER
 70
    1
  9
$ANGBASE
 50
0
  9
$ANGDIR
 70
    0
  9
$PDMODE
 70
   34
  9
$PDSIZE
 40
0
  9
$PLINEWID
 40
0
  9
$SPLFRAME
 70
    0
  9
$SPLINETYPE
 70
    2
  9
$SPLINESEGS
 70
    8
  9
$HANDSEED
  5
20000
  9
$SURFTAB1
 70
    6
  9
$SURFTAB2
 70
    6
  9
$SURFTYPE
 70
    6
  9
$SURFU
 70
    6
  9
$SURFV
 70
    6
  9
$UCSBASE
  2

  9
$UCSNAME
  2

  9
$UCSORG
 10
0
 20
0
 30
0
  9
$UCSXDIR
 10
1
 20
0
 30
0
  9
$UCSYDIR
 10
0
 20
1
 30
0
  9
$UCSORTHOREF
  2

  9
$UCSORTHOVIEW
 70
    0
  9
$UCSORGTOP
 10
0
 20
0
 30
0
  9
$UCSORGBOTTOM
 10
0
 20
0
 30
0
  9
$UCSORGLEFT
 10
0
 20
0
 30
0
  9
$UCSORGRIGHT
 10
0
 20
0
 30
0
  9
$UCSORGFRONT
 10
0
 20
0
 30
0
  9
$UCSORGBACK
 10
0
 20
0
 30
0
  9
$PUCSBASE
  2

  9
$PUCSNAME
  2

  9
$PUCSORG
 10
0
 20
0
 30
0
  9
$PUCSXDIR
 10
1
 20
0
 30
0
  9
$PUCSYDIR
 10
0
 20
1
 30
0
  9
$PUCSORTHOREF
  2

  9
$PUCSORTHOVIEW
 70
    0
  9
$PUCSORGTOP
 10
0
 20
0
 30
0
  9
$PUCSORGBOTTOM
 10
0
 20
0
 30
0
  9
$PUCSORGLEFT
 10
0
 20
0
 30
0
  9
$PUCSORGRIGHT
 10
0
 20
0
 30
0
  9
$PUCSORGFRONT
 10
0
 20
0
 30
0
  9
$PUCSORGBACK
 10
0
 20
0
 30
0
  9
$USERI1
 70
    0
  9
$USERI2
 70
    0
  9
$USERI3
 70
    0
  9
$USERI4
 70
    0
  9
$USERI5
 70
    0
  9
$USERR1
 40
0
  9
$USERR2
 40
0
  9
$USERR3
 40
0
  9
$USERR4
 40
0
  9
$USERR5
 40
0
  9
$WORLDVIEW
 70
    1
  9
$SHADEDGE
 70
    3
  9
$SHADEDIF
 70
   70
  9
$TILEMODE
 70
    1
  9
$MAXACTVP
 70
   64
  9
$PINSBASE
 10
0
 20
0
 30
0
  9
$PLIMCHECK
 70
    0
  9
$PEXTMIN
 10
0
 20
0
 30
0
  9
$PEXTMAX
 10
0
 20
0
 30
0
  9
$GRIDMODE
 70
    1
  9
$SNAPSTYLE
 70
    0
  9
$PLIMMIN
 10
0
 20
0
  9
$PLIMMAX
 10
297
 20
210
  9
$UNITMODE
 70
    0
  9
$VISRETAIN
 70
    1
  9
$PLINEGEN
 70
    0
  9
$PSLTSCALE
 70
    1
  9
$TREEDEPTH
 70
 3020
  9
$CMLSTYLE
  2
Standard
  9
$CMLJUST
 70
    0
  9
$CMLSCALE
 40
20
  9
$PROXYGRAPHICS
 70
    1
  9
$MEASUREMENT
 70
    1
  9
$CELWEIGHT
370
   -1
  9
$ENDCAPS
280
    0
  9
$JOINSTYLE
280
    0
  9
$LWDISPLAY
290
    0
  9
$INSUNITS
 70
    4
  9
$HYPERLINKBASE
  1

  9
$STYLESHEET
  1

  9
$XEDIT
290
    1
  9
$CEPSNTYPE
380
    0
  9
$PSTYLEMODE
290
    1
  9
$EXTNAMES
290
    1
  9
$PSVPSCALE
 40
1
  9
$OLESTARTUP
290
    0
  9
$SORTENTS
280
  127
  9
$INDEXCTL
280
    0
  9
$HIDETEXT
280
    1
  9
$XCLIPFRAME
290
    0
  9
$HALOGAP
280
    0
  9
$OBSCOLOR
 70
  257
  9
$OBSLTYPE
280
    0
  9
$INTERSECTIONDISPLAY
280
    0
  9
$INTERSECTIONCOLOR
 70
  257
  9
$DIMASSOC
280
    1
  9
$PROJECTNAME
  1

  9
$CAMERADISPLAY
290
    0
  9
$LENSLENGTH
 40
50
  9
$CAMERAHEIGHT
 40
0
  9
$STEPSPERSEC
 40
2
  9
$STEPSIZE
 40
50
  9
$3DDWFPREC
 40
2
  9
$PSOLWIDTH
 40
5
  9
$PSOLHEIGHT
 40
80
  9
$LOFTANG1
 40
1.570796326794897
  9
$LOFTANG2
 40
1.570796326794897
  9
$LOFTMAG1
 40
0
  9
$LOFTMAG2
 40
0
  9
$LOFTPARAM
 70
    7
  9
$LOFTNORMALS
280
    1
  9
$LATITUDE
 40
1
  9
$LONGITUDE
 40
1
  9
$NORTHDIRECTION
 40
0
  9
$TIMEZONE
 70
-8000
  9
$LIGHTGLYPHDISPLAY
280
    1
  9
$TILEMODELIGHTSYNCH
280
    1
  9
$SOLIDHIST
280
    1
  9
$SHOWHIST
280
    1
  9
$DWFFRAME
280
    2
  9
$DGNFRAME
280
    0
  9
$REALWORLDSCALE
290
    1
  9
$INTERFERECOLOR
 62
    1
  9
$CSHADOW
280
    0
  9
$SHADOWPLANELOCATION
 40
0
  0
ENDSEC
  0
SECTION
  2
CLASSES
  0
ENDSEC
  0
SECTION
  2
TABLES
  0
TABLE
  2
VPORT
  5
8
330
0
100
AcDbSymbolTable
 70
    1
  0
VPORT
  5
31
330
2
100
AcDbSymbolTableRecord
100
AcDbViewportTableRecord
  2
*ACTIVE
 70
    0
 10
0
 20
0
 11
1
 21
1
 12
139.9190040411675
 22
90.3450522782373
 13
0
 23
0
 14
10
 24
10
 15
10
 25
10
 16
0
 26
0
 36
1
 17
0
 27
0
 37
0
 40
366.0132887169614
 41
1.375949367088608
 42
50
 43
0
 44
0
 50
0
 51
0
 71
    0
 72
  100
 73
    1
 74
    3
 75
    0
 76
    1
 77
    0
 78
    0
281
    0
 65
    1
110
0
120
0
130
0
111
1
121
0
131
0
112
0
122
1
132
0
 79
    0
146
0
348
10020
 60
    7
 61
    5
292
1
282
    1
141
0
142
0
 63
  250
421
3358443
  0
ENDTAB
  0
TABLE
  2
LTYPE
  5
5
330
0
100
AcDbSymbolTable
 70
    4
  0
LTYPE
  5
14
330
5
100
AcDbSymbolTableRecord
100
AcDbLinetypeTableRecord
  2
ByBlock
 70
    0
  3

 72
   65
 73
    0
 40
0
  0
LTYPE
  5
15
330
5
100
AcDbSymbolTableRecord
100
AcDbLinetypeTableRecord
  2
ByLayer
 70
    0
  3

 72
   65
 73
    0
 40
0
  0
LTYPE
  5
16
330
5
100
AcDbSymbolTableRecord
100
AcDbLinetypeTableRecord
  2
Continuous
 70
    0
  3
Solid line
 72
   65
 73
    0
 40
0
  0
LTYPE
  5
32
330
5
100
AcDbSymbolTableRecord
100
AcDbLinetypeTableRecord
  2
DOT
 70
    0
  3
Dot . . . . . . . . . . . . . . . . . . . . . .
 72
   65
 73
    2
 40
6.35
 49
0
 74
    0
 49
-6.35
 74
    0
  0
LTYPE
  5
33
330
5
100
AcDbSymbolTableRecord
100
AcDbLinetypeTableRecord
  2
DOTTINY
 70
    0
  3
Dot (.15x) .....................................
 72
   65
 73
    2
 40
0.9525
 49
0
 74
    0
 49
-0.9525
 74
    0
  0
LTYPE
  5
34
330
5
100
AcDbSymbolTableRecord
100
AcDbLinetypeTableRecord
  2
DOT2
 70
    0
  3
Dot (.5x) .....................................
 72
   65
 73
    2
 40
3.175
 49
0
 74
    0
 49
-3.175
 74
    0
  0
LTYPE
  5
35
330
5
100
AcDbSymbolTableRecord
100
AcDbLinetypeTableRecord
  2
DOTX2
 70
    0
  3
Dot (2x) .  .  .  .  .  .  .  .  .  .  .  .  .
 72
   65
 73
    2
 40
12.7
 49
0
 74
    0
 49
-12.7
 74
    0
  0
LTYPE
  5
36
330
5
100
AcDbSymbolTableRecord
100
AcDbLinetypeTableRecord
  2
DASHED
 70
    0
  3
Dashed _ _ _ _ _ _ _ _ _ _ _ _ _ _ _ _ _
 72
   65
 73
    2
 40
19.05
 49
12.7
 74
    0
 49
-6.35
 74
    0
  0
LTYPE
  5
37
330
5
100
AcDbSymbolTableRecord
100
AcDbLinetypeTableRecord
  2
DASHEDTINY
 70
    0
  3
Dashed (.15x) _ _ _ _ _ _ _ _ _ _ _ _ _ _ _ _ _
 72
   65
 73
    2
 40
2.8575
 49
1.905
 74
    0
 49
-0.9525
 74
    0
  0
LTYPE
  5
38
330
5
100
AcDbSymbolTableRecord
100
AcDbLinetypeTableRecord
  2
DASHED2
 70
    0
  3
Dashed (.5x) _ _ _ _ _ _ _ _ _ _ _ _ _ _ _ _ _
 72
   65
 73
    2
 40
9.524999999999999
 49
6.35
 74
    0
 49
-3.175
 74
    0
  0
LTYPE
  5
39
330
5
100
AcDbSymbolTableRecord
100
AcDbLinetypeTableRecord
  2
DASHEDX2
 70
    0
  3
Dashed (2x) ____  ____  ____  ____  ____  ___
 72
   65
 73
    2
 40
38.09999999999999
 49
25.4
 74
    0
 49
-12.7
 74
    0
  0
LTYPE
  5
3A
330
5
100
AcDbSymbolTableRecord
100
AcDbLinetypeTableRecord
  2
DASHDOT
 70
    0
  3
Dash dot __ . __ . __ . __ . __ . __ . __ . __
 72
   65
 73
    4
 40
25.4
 49
12.7
 74
    0
 49
-6.35
 74
    0
 49
0
 74
    0
 49
-6.35
 74
    0
  0
LTYPE
  5
3B
330
5
100
AcDbSymbolTableRecord
100
AcDbLinetypeTableRecord
  2
DASHDOTTINY
 70
    0
  3
Dash dot (.15x) _._._._._._._._._._._._._._._.
 72
   65
 73
    4
 40
3.81
 49
1.905
 74
    0
 49
-0.9525
 74
    0
 49
0
 74
    0
 49
-0.9525
 74
    0
  0
LTYPE
  5
3C
330
5
100
AcDbSymbolTableRecord
100
AcDbLinetypeTableRecord
  2
DASHDOT2
 70
    0
  3
Dash dot (.5x) _._._._._._._._._._._._._._._.
 72
   65
 73
    4
 40
12.7
 49
6.35
 74
    0
 49
-3.175
 74
    0
 49
0
 74
    0
 49
-3.175
 74
    0
  0
LTYPE
  5
3D
330
5
100
AcDbSymbolTableRecord
100
AcDbLinetypeTableRecord
  2
DASHDOTX2
 70
    0
  3
Dash dot (2x) ____  .  ____  .  ____  .  ___
 72
   65
 73
    4
 40
50.8
 49
25.4
 74
    0
 49
-12.7
 74
    0
 49
0
 74
    0
 49
-12.7
 74
    0
  0
LTYPE
  5
3E
330
5
100
AcDbSymbolTableRecord
100
AcDbLinetypeTableRecord
  2
DIVIDE
 70
    0
  3
Divide ____ . . ____ . . ____ . . ____ . . ____
 72
   65
 73
    6
 40
31.75
 49
12.7
 74
    0
 49
-6.35
 74
    0
 49
0
 74
    0
 49
-6.35
 74
    0
 49
0
 74
    0
 49
-6.35
 74
    0
  0
LTYPE
  5
3F
330
5
100
AcDbSymbolTableRecord
100
AcDbLinetypeTableRecord
  2
DIVIDETINY
 70
    0
  3
Divide (.15x) __..__..__..__..__..__..__..__.._
 72
   65
 73
    6
 40
4.7625
 49
1.905
 74
    0
 49
-0.9525
 74
    0
 49
0
 74
    0
 49
-0.9525
 74
    0
 49
0
 74
    0
 49
-0.9525
 74
    0
  0
LTYPE
  5
40
330
5
100
AcDbSymbolTableRecord
100
AcDbLinetypeTableRecord
  2
DIVIDE2
 70
    0
  3
Divide (.5x) __..__..__..__..__..__..__..__.._
 72
   65
 73
    6
 40
15.875
 49
6.35
 74
    0
 49
-3.175
 74
    0
 49
0
 74
    0
 49
-3.175
 74
    0
 49
0
 74
    0
 49
-3.175
 74
    0
  0
LTYPE
  5
41
330
5
100
AcDbSymbolTableRecord
100
AcDbLinetypeTableRecord
  2
DIVIDEX2
 70
    0
  3
Divide (2x) ________  .  .  ________  .  .  _
 72
   65
 73
    6
 40
63.5
 49
25.4
 74
    0
 49
-12.7
 74
    0
 49
0
 74
    0
 49
-12.7
 74
    0
 49
0
 74
    0
 49
-12.7
 74
    0
  0
LTYPE
  5
42
330
5
100
AcDbSymbolTableRecord
100
AcDbLinetypeTableRecord
  2
BORDER
 70
    0
  3
Border __ __ . __ __ . __ __ . __ __ . __ __ .
 72
   65
 73
    6
 40
44.45
 49
12.7
 74
    0
 49
-6.35
 74
    0
 49
12.7
 74
    0
 49
-6.35
 74
    0
 49
0
 74
    0
 49
-6.35
 74
    0
  0
LTYPE
  5
43
330
5
100
AcDbSymbolTableRecord
100
AcDbLinetypeTableRecord
  2
BORDERTINY
 70
    0
  3
Border (.15x) __.__.__.__.__.__.__.__.__.__.__.
 72
   65
 73
    6
 40
6.6675
 49
1.905
 74
    0
 49
-0.9525
 74
    0
 49
1.905
 74
    0
 49
-0.9525
 74
    0
 49
0
 74
    0
 49
-0.9525
 74
    0
  0
LTYPE
  5
44
330
5
100
AcDbSymbolTableRecord
100
AcDbLinetypeTableRecord
  2
BORDER2
 70
    0
  3
Border (.5x) __.__.__.__.__.__.__.__.__.__.__.
 72
   65
 73
    6
 40
22.225
 49
6.35
 74
    0
 49
-3.175
 74
    0
 49
6.35
 74
    0
 49
-3.175
 74
    0
 49
0
 74
    0
 49
-3.175
 74
    0
  0
LTYPE
  5
45
330
5
100
AcDbSymbolTableRecord
100
AcDbLinetypeTableRecord
  2
BORDERX2
 70
    0
  3
Border (2x) ____  ____  .  ____  ____  .  ___
 72
   65
 73
    6
 40
88.89999999999999
 49
25.4
 74
    0
 49
-12.7
 74
    0
 49
25.4
 74
    0
 49
-12.7
 74
    0
 49
0
 74
    0
 49
-12.7
 74
    0
  0
LTYPE
  5
46
330
5
100
AcDbSymbolTableRecord
100
AcDbLinetypeTableRecord
  2
CENTER
 70
    0
  3
Center ____ _ ____ _ ____ _ ____ _ ____ _ ____
 72
   65
 73
    4
 40
50.8
 49
31.75
 74
    0
 49
-6.35
 74
    0
 49
6.35
 74
    0
 49
-6.35
 74
    0
  0
LTYPE
  5
47
330
5
100
AcDbSymbolTableRecord
100
AcDbLinetypeTableRecord
  2
CENTERTINY
 70
    0
  3
Center (.15x) ___ _ ___ _ ___ _ ___ _ ___ _ ___
 72
   65
 73
    4
 40
7.62
 49
4.7625
 74
    0
 49
-0.9525
 74
    0
 49
0.9525
 74
    0
 49
-0.9525
 74
    0
  0
LTYPE
  5
48
330
5
100
AcDbSymbolTableRecord
100
AcDbLinetypeTableRecord
  2
CENTER2
 70
    0
  3
Center (.5x) ___ _ ___ _ ___ _ ___ _ ___ _ ___
 72
   65
 73
    4
 40
28.575
 49
19.05
 74
    0
 49
-3.175
 74
    0
 49
3.175
 74
    0
 49
-3.175
 74
    0
  0
LTYPE
  5
49
330
5
100
AcDbSymbolTableRecord
100
AcDbLinetypeTableRecord
  2
CENTERX2
 70
    0
  3
Center (2x) ________  __  ________  __  _____
 72
   65
 73
    4
 40
101.6
 49
63.5
 74
    0
 49
-12.7
 74
    0
 49
12.7
 74
    0
 49
-12.7
 74
    0
  0
ENDTAB
  0
TABLE
  2
LAYER
  5
2
330
0
100
AcDbSymbolTable
 70
    1
  0
LAYER
  5
10
330
2
100
AcDbSymbolTableRecord
100
AcDbLayerTableRecord
  2
0
 70
    1
 62
    7
  6
CONTINUOUS
370
    0
390
F
  0
LAYER
  5
4A
330
2
100
AcDbSymbolTableRecord
100
AcDbLayerTableRecord
  2
1
 70
    0
 62
    5
  6
CONTINUOUS
370
    0
390
F
  0
LAYER
  5
4B
330
2
100
AcDbSymbolTableRecord
100
AcDbLayerTableRecord
  2
ref
 70
    1
 62
    2
  6
CONTINUOUS
370
    0
390
F
  0
ENDTAB
  0
TABLE
  2
STYLE
  5
3
330
0
100
AcDbSymbolTable
 70
    3
  0
STYLE
  5
4C
330
2
100
AcDbSymbolTableRecord
100
AcDbTextStyleTableRecord
  2
Standard
 70
    0
 40
0
 41
1
 50
0
 71
    0
 42
1
  3
txt
  4

  0
ENDTAB
  0
TABLE
  2
VIEW
  5
6
330
0
100
AcDbSymbolTable
 70
    0
  0
ENDTAB
  0
TABLE
  2
UCS
  5
7
330
0
100
AcDbSymbolTable
 70
    0
  0
ENDTAB
  0
TABLE
  2
APPID
  5
9
330
0
100
AcDbSymbolTable
 70
    1
  0
APPID
  5
12
330
9
100
AcDbSymbolTableRecord
100
AcDbRegAppTableRecord
  2
ACAD
 70
    0
  0
APPID
  5
4D
330
9
100
AcDbSymbolTableRecord
100
AcDbRegAppTableRecord
  2
LibreCad
 70
    0
  0
ENDTAB
  0
TABLE
  2
DIMSTYLE
  5
A
330
0
100
AcDbSymbolTable
 70
    1
100
AcDbDimStyleTable
 71
    1
  0
DIMSTYLE
105
4E
330
A
100
AcDbSymbolTableRecord
100
AcDbDimStyleTableRecord
  2
Standard
 70
    0
 40
1
 41
2.5
 42
0.625
 43
0.38
 44
1.25
 45
0
 46
0
 47
0
 48
0
 49
1
140
2.5
141
0.09
142
2.5
143
25.4
144
1
145
0
146
1
147
0.625
148
0
 71
    0
 72
    0
 73
    0
 74
    1
 75
    0
 76
    0
 77
    0
 78
    1
 79
    0
170
    0
171
    2
172
    0
173
    0
174
    0
175
    0
176
    0
177
    0
178
    0
179
    0
271
    2
272
    4
273
    2
274
    2
275
    0
276
    0
277
    2
278
    0
279
    0
280
    0
281
    0
282
    0
283
    1
284
    0
285
    0
286
    0
288
    0
289
    3
340
standard
341

371
   -2
372
   -2
  0
ENDTAB
  0
TABLE
  2
BLOCK_RECORD
  5
1
330
0
100
AcDbSymbolTable
 70
    2
  0
BLOCK_RECORD
  5
1F
330
1
100
AcDbSymbolTableRecord
100
AcDbBlockTableRecord
  2
*Model_Space
 70
    0
280
    1
281
    0
  0
BLOCK_RECORD
  5
1E
330
1
100
AcDbSymbolTableRecord
100
AcDbBlockTableRecord
  2
*Paper_Space
 70
    0
280
    1
281
    0
  0
ENDTAB
  0
ENDSEC
  0
SECTION
  2
BLOCKS
  0
BLOCK
  5
20
330
1F
100
AcDbEntity
  8
0
100
AcDbBlockBegin
  2
*Model_Space
 70
    0
 10
0
 20
0
 30
0
  3
*Model_Space
  1

  0
ENDBLK
  5
21
330
1F
100
AcDbEntity
  8
0
100
AcDbBlockEnd
  0
BLOCK
  5
1C
330
1B
100
AcDbEntity
  8
0
100
AcDbBlockBegin
  2
*Paper_Space
 70
    0
 10
0
 20
0
 30
0
  3
*Paper_Space
  1

  0
ENDBLK
  5
1D
330
1F
100
AcDbEntity
  8
0
100
AcDbBlockEnd
  0
ENDSEC
  0
SECTION
  2
ENTITIES
  0
CIRCLE
  5
4F
100
AcDbEntity
  8
ref
  6
ByLayer
 62
  256
370
   -1
100
AcDbCircle
 10
-29.36869495318567
 20
-16.65959953740574
 40
7.5
  0
CIRCLE
  5
50
100
AcDbEntity
  8
ref
  6
ByLayer
 62
  256
370
   -1
100
AcDbCircle
 10
-29.36869495318567
 20
-16.65959953740574
 40
60
  0
LINE
  5
51
100
AcDbEntity
  8
ref
  6
ByLayer
 62
  256
370
   -1
100
AcDbLine
 10
13.02521762238373
 20
-22.56033479116713
 11
26.05043185822449
 21
1.9552214846e-06
  0
LINE
  5
52
100
AcDbEntity
  8
ref
  6
ByLayer
 62
  256
370
   -1
100
AcDbLine
 10
26.05043185822449
 20
1.9552214846e-06
 11
13.02521423584076
 21
22.56033674638861
  0
LINE
  5
53
100
AcDbEntity
  8
ref
  6
ByLayer
 62
  256
370
   -1
100
AcDbLine
 10
13.02521423584076
 20
22.56033674638861
 11
-13.02521762238373
 21
22.56033479116713
  0
LINE
  5
54
100
AcDbEntity
  8
ref
  6
ByLayer
 62
  256
370
   -1
100
AcDbLine
 10
-13.02521762238373
 20
22.56033479116713
 11
-26.05043185822451
 21
-1.9552214878e-06
  0
LINE
  5
55
100
AcDbEntity
  8
ref
  6
ByLayer
 62
  256
370
   -1
100
AcDbLine
 10
-26.05043185822451
 20
-1.9552214878e-06
 11
-13.02521423584081
 21
-22.56033674638862
  0
LINE
  5
56
100
AcDbEntity
  8
ref
  6
ByLayer
 62
  256
370
   -1
100
AcDbLine
 10
-13.02521423584081
 20
-22.56033674638862
 11
13.0252176223837
 21
-22.56033479116716
  0
LINE
  5
57
100
AcDbEntity
  8
ref
  6
ByLayer
 62
  256
370
   -1
100
AcDbLine
 10
-9.6e-15
 20
1.51e-14
 11
-26.05043185822451
 21
-1.9552214878e-06
  0
LINE
  5
58
100
AcDbEntity
  8
ref
  6
ByLayer
 62
  256
370
   -1
100
AcDbLine
 10
-9.500000000000001e-15
 20
1.33e-14
 11
26.05043185822449
 21
1.9552214846e-06
  0
LINE
  5
59
100
AcDbEntity
  8
ref
  6
ByLayer
 62
  256
370
   -1
100
AcDbLine
 10
-9.500000000000001e-15
 20
1.33e-14
 11
-13.02521762238373
 21
22.56033479116713
  0
LINE
  5
5A
100
AcDbEntity
  8
ref
  6
ByLayer
 62
  256
370
   -1
100
AcDbLine
 10
-9.6e-15
 20
1.51e-14
 11
13.0252176223837
 21
-22.56033479116716
  0
LINE
  5
5B
100
AcDbEntity
  8
ref
  6
ByLayer
 62
  256
370
   -1
100
AcDbLine
 10
-9.500000000000001e-15
 20
1.33e-14
 11
13.02521423584076
 21
22.56033674638861
  0
LINE
  5
5C
100
AcDbEntity
  8
ref
  6
ByLayer
 62
  256
370
   -1
100
AcDbLine
 10
-9.6e-15
 20
1.51e-14
 11
-13.02521423584081
 21
-22.56033674638862
  0
CIRCLE
  5
5D
100
AcDbEntity
  8
ref
  6
ByLayer
 62
  256
370
   -1
100
AcDbCircle
 10
-9.500000000000001e-15
 20
1.33e-14
 40
13
  0
LINE
  5
5E
100
AcDbEntity
  8
ref
  6
ByLayer
 62
  256
370
   -1
100
AcDbLine
 10
-9.16991929031402
 20
15.88276335912809
 11
-6.66991929031402
 21
20.21289037805028
  0
LINE
  5
5F
100
AcDbEntity
  8
ref
  6
ByLayer
 62
  256
370
   -1
100
AcDbLine
 10
-3.61642657564865
 20
6.263833485138829
 11
-1.116426575648649
 21
10.59396050406102
  0
LINE
  5
60
100
AcDbEntity
  8
ref
  6
ByLayer
 62
  256
370
   -1
100
AcDbLine
 10
-3.398287914157181
 20
16.63065414804603
 11
-4.898287914157182
 21
19.22873035939935
  0
LINE
  5
61
100
AcDbEntity
  8
ref
  6
ByLayer
 62
  256
370
   -1
100
AcDbLine
 10
-3.39828791415718
 20
16.63065414804603
 11
-0.3982879141571805
 21
16.63065414804603
  0
LINE
  5
62
100
AcDbEntity
  8
1
  6
ByLayer
 62
  256
370
   -1
100
AcDbLine
 10
-1.636041817919312
 20
10.89396050406102
 11
-0.9432214948917627
 21
10.89396050406102
  0
LINE
  5
63
100
AcDbEntity
  8
1
  6
ByLayer
 62
  256
370
   -1
100
AcDbLine
 10
-0.5968113333779863
 20
10.29396050406102
 11
-0.9432214948917627
 21
10.89396050406102
  0
LINE
  5
64
100
AcDbEntity
  8
1
  6
ByLayer
 62
  256
370
   -1
100
AcDbLine
 10
-7.189534532584683
 20
20.51289037805028
 11
-6.496714209557133
 21
20.51289037805028
  0
LINE
  5
65
100
AcDbEntity
  8
1
  6
ByLayer
 62
  256
370
   -1
100
AcDbLine
 10
-6.150304048043357
 20
19.91289037805028
 11
-6.496714209557133
 21
20.51289037805028
  0
LINE
  5
66
100
AcDbEntity
  8
1
  6
ByLayer
 62
  256
370
   -1
100
AcDbLine
 10
-5.129228021833032
 20
18.42873035939935
 11
-4.782817860319255
 21
19.02873035939935
  0
LINE
  5
67
100
AcDbEntity
  8
1
  6
ByLayer
 62
  256
370
   -1
100
AcDbLine
 10
-4.089997537291706
 20
19.02873035939935
 11
-4.782817860319255
 21
19.02873035939935
  0
LINE
  5
68
100
AcDbEntity
  8
1
  6
ByLayer
 62
  256
370
   -1
100
AcDbLine
 10
-0.9756381833468064
 20
17.23065414804603
 11
-0.6292280218330301
 21
16.63065414804603
  0
LINE
  5
69
100
AcDbEntity
  8
1
  6
ByLayer
 62
  256
370
   -1
100
AcDbLine
 10
-0.9756381833468063
 20
16.03065414804603
 11
-0.6292280218330301
 21
16.63065414804603
  0
LINE
  5
6A
100
AcDbEntity
  8
1
  6
ByLayer
 62
  256
370
   -1
100
AcDbLine
 10
-11.98598706278716
 20
21.96033481716703
 11
-12.33239729935618
 21
22.56033484316692
  0
LINE
  5
6B
100
AcDbEntity
  8
1
  6
ByLayer
 62
  256
370
   -1
100
AcDbLine
 10
-12.10145711162141
 20
21.76033482583366
 11
-11.98598706278716
 21
21.96033481716703
  0
LINE
  5
6C
100
AcDbEntity
  8
1
  6
ByLayer
 62
  256
370
   -1
100
AcDbLine
 10
-9.169919320336113
 20
16.6827633071283
 11
-12.10145711162141
 21
21.76033482583366
  0
LINE
  5
6D
100
AcDbEntity
  8
1
  6
ByLayer
 62
  256
370
   -1
100
AcDbLine
 10
-9.169919320336113
 20
16.6827633071283
 11
-7.420474640260533
 21
19.71289037805028
  0
LINE
  5
6E
100
AcDbEntity
  8
1
  6
ByLayer
 62
  256
370
   -1
100
AcDbLine
 10
-7.535944694098458
 20
19.91289037805029
 11
-7.189534532584683
 21
20.51289037805028
  0
LINE
  5
6F
100
AcDbEntity
  8
1
  6
ByLayer
 62
  256
370
   -1
100
AcDbLine
 10
-7.420474640260533
 20
19.71289037805028
 11
-7.535944694098458
 21
19.91289037805029
  0
LINE
  5
70
100
AcDbEntity
  8
1
  6
ByLayer
 62
  256
370
   -1
100
AcDbLine
 10
-6.496714209557132
 20
19.31289037805028
 11
-6.150304048043357
 21
19.91289037805028
  0
LINE
  5
71
100
AcDbEntity
  8
1
  6
ByLayer
 62
  256
370
   -1
100
AcDbLine
 10
-6.727654317232982
 20
19.31289037805028
 11
-6.496714209557132
 21
19.31289037805028
  0
LINE
  5
72
100
AcDbEntity
  8
1
  6
ByLayer
 62
  256
370
   -1
100
AcDbLine
 10
-8.708039064954951
 20
15.88276337646136
 11
-6.727654317232982
 21
19.31289037805028
  0
LINE
  5
73
100
AcDbEntity
  8
1
  6
ByLayer
 62
  256
370
   -1
100
AcDbLine
 10
-3.86016812950888
 20
16.63065414804603
 11
-4.551877752643406
 21
17.82873035939935
  0
LINE
  5
74
100
AcDbEntity
  8
1
  6
ByLayer
 62
  256
370
   -1
100
AcDbLine
 10
-4.551877752643406
 20
17.82873035939935
 11
-4.782817860319257
 21
17.82873035939935
  0
LINE
  5
75
100
AcDbEntity
  8
1
  6
ByLayer
 62
  256
370
   -1
100
AcDbLine
 10
-4.782817860319257
 20
17.82873035939935
 11
-5.129228021833032
 21
18.42873035939935
  0
LINE
  5
76
100
AcDbEntity
  8
1
  6
ByLayer
 62
  256
370
   -1
100
AcDbLine
 10
-3.859057429615856
 20
18.22873035939935
 11
-3.74358737577793
 21
18.42873035939935
  0
LINE
  5
77
100
AcDbEntity
  8
1
  6
ByLayer
 62
  256
370
   -1
100
AcDbLine
 10
-3.74358737577793
 20
18.42873035939935
 11
-4.089997537291706
 21
19.02873035939935
  0
LINE
  5
78
100
AcDbEntity
  8
1
  6
ByLayer
 62
  256
370
   -1
100
AcDbLine
 10
-3.398287914157181
 20
17.43065414804603
 11
-3.859057429615856
 21
18.22873035939935
  0
LINE
  5
79
100
AcDbEntity
  8
1
  6
ByLayer
 62
  256
370
   -1
100
AcDbLine
 10
-2.705467591129629
 20
17.03065414804603
 11
-1.783928560212281
 21
17.03065414804603
  0
LINE
  5
7A
100
AcDbEntity
  8
1
  6
ByLayer
 62
  256
370
   -1
100
AcDbLine
 10
-1.668458506374356
 20
17.23065414804603
 11
-0.9756381833468064
 21
17.23065414804603
  0
LINE
  5
7B
100
AcDbEntity
  8
1
  6
ByLayer
 62
  256
370
   -1
100
AcDbLine
 10
-1.783928560212281
 20
17.03065414804603
 11
-1.668458506374356
 21
17.23065414804603
  0
LINE
  5
7C
100
AcDbEntity
  8
1
  6
ByLayer
 62
  256
370
   -1
100
AcDbLine
 10
-1.668458506374355
 20
16.03065414804603
 11
-0.9756381833468063
 21
16.03065414804603
  0
LINE
  5
7D
100
AcDbEntity
  8
1
  6
ByLayer
 62
  256
370
   -1
100
AcDbLine
 10
-1.78392856021228
 20
16.23065414804603
 11
-1.668458506374355
 21
16.03065414804603
  0
LINE
  5
7E
100
AcDbEntity
  8
1
  6
ByLayer
 62
  256
370
   -1
100
AcDbLine
 10
-3.167347806481332
 20
16.23065414804603
 11
-1.78392856021228
 21
16.23065414804603
  0
LINE
  5
7F
100
AcDbEntity
  8
1
  6
ByLayer
 62
  256
370
   -1
100
AcDbLine
 10
-1.982451979433088
 20
10.29396050406102
 11
-1.636041817919312
 21
10.89396050406102
  0
LINE
  5
80
100
AcDbEntity
  8
1
  6
ByLayer
 62
  256
370
   -1
100
AcDbLine
 10
-1.866981925595163
 20
10.09396050406102
 11
-1.982451979433088
 21
10.29396050406102
  0
LINE
  5
81
100
AcDbEntity
  8
1
  6
ByLayer
 62
  256
370
   -1
100
AcDbLine
 10
-0.9432214948917607
 20
9.693960504061023
 11
-0.5968113333779863
 21
10.29396050406102
  0
LINE
  5
82
100
AcDbEntity
  8
1
  6
ByLayer
 62
  256
370
   -1
100
AcDbLine
 10
-1.174161602567611
 20
9.693960504061023
 11
-0.9432214948917607
 21
9.693960504061023
  0
LINE
  5
83
100
AcDbEntity
  8
1
  6
ByLayer
 62
  256
370
   -1
100
AcDbLine
 10
-6.620752800273573
 20
12.26747814273958
 11
-8.708039064954951
 21
15.88276337646136
  0
LINE
  5
84
100
AcDbEntity
  8
1
  6
ByLayer
 62
  256
370
   -1
100
AcDbLine
 10
-3.86016812950888
 20
16.63065414804603
 11
-6.620752800273573
 21
12.26747814273958
  0
LINE
  5
85
100
AcDbEntity
  8
1
  6
ByLayer
 62
  256
370
   -1
100
AcDbLine
 10
-3.167347806481332
 20
16.23065414804603
 11
-5.917811401967309
 21
11.04994813716734
  0
LINE
  5
86
100
AcDbEntity
  8
1
  6
ByLayer
 62
  256
370
   -1
100
AcDbLine
 10
-3.74005673127965
 20
7.277967054923428
 11
-1.866981925595163
 21
10.09396050406102
  0
LINE
  5
87
100
AcDbEntity
  8
1
  6
ByLayer
 62
  256
370
   -1
100
AcDbLine
 10
-3.74005673127965
 20
7.277967054923428
 11
-5.917811401967309
 21
11.04994813716734
  0
LINE
  5
88
100
AcDbEntity
  8
1
  6
ByLayer
 62
  256
370
   -1
100
AcDbLine
 10
-1.174161602567611
 20
9.693960504061023
 11
-3.028201870332359
 21
6.058753398309736
  0
LINE
  5
89
100
AcDbEntity
  8
1
  6
ByLayer
 62
  256
370
   -1
100
AcDbLine
 10
-8.616426665714879
 20
6.863832734586394
 11
-8.962836737162359
 21
6.263832682586603
  0
LINE
  5
8A
100
AcDbEntity
  8
1
  6
ByLayer
 62
  256
370
   -1
100
AcDbLine
 10
-8.616426485582291
 20
5.663832734586407
 11
-8.962836737162359
 21
6.263832682586603
  0
LINE
  5
8B
100
AcDbEntity
  8
1
  6
ByLayer
 62
  256
370
   -1
100
AcDbLine
 10
-14.16991938038025
 20
16.48276260857565
 11
-14.51632945182773
 21
15.88276255657587
  0
LINE
  5
8C
100
AcDbEntity
  8
1
  6
ByLayer
 62
  256
370
   -1
100
AcDbLine
 10
-14.16991920024767
 20
15.28276260857567
 11
-14.51632945182773
 21
15.88276255657587
  0
LINE
  5
8D
100
AcDbEntity
  8
1
  6
ByLayer
 62
  256
370
   -1
100
AcDbLine
 10
-13.39513668978658
 20
13.65640493765975
 11
-14.08795701281413
 21
13.65640483366016
  0
LINE
  5
8E
100
AcDbEntity
  8
1
  6
ByLayer
 62
  256
370
   -1
100
AcDbLine
 10
-14.4343670842616
 20
13.05640478166037
 11
-14.08795701281413
 21
13.65640483366016
  0
LINE
  5
8F
100
AcDbEntity
  8
1
  6
ByLayer
 62
  256
370
   -1
100
AcDbLine
 10
-14.43436654444141
 20
9.460252358953776
 11
-14.08795629286135
 21
8.86025241095358
  0
LINE
  5
90
100
AcDbEntity
  8
1
  6
ByLayer
 62
  256
370
   -1
100
AcDbLine
 10
-13.39513596983381
 20
8.860252514953174
 11
-14.08795629286135
 21
8.86025241095358
  0
LINE
  5
91
100
AcDbEntity
  8
1
  6
ByLayer
 62
  256
370
   -1
100
AcDbLine
 10
-13.02521750229534
 20
21.36033473916734
 11
-13.37162773886436
 21
21.96033476516723
  0
LINE
  5
92
100
AcDbEntity
  8
1
  6
ByLayer
 62
  256
370
   -1
100
AcDbLine
 10
-12.79427740462686
 20
21.36033477383387
 11
-13.02521750229534
 21
21.36033473916734
  0
LINE
  5
93
100
AcDbEntity
  8
1
  6
ByLayer
 62
  256
370
   -1
100
AcDbLine
 10
-9.862739613341571
 20
16.2827632551285
 11
-12.79427740462686
 21
21.36033477383387
  0
LINE
  5
94
100
AcDbEntity
  8
1
  6
ByLayer
 62
  256
370
   -1
100
AcDbLine
 10
-9.862739613341571
 20
16.2827632551285
 11
-13.36162897349268
 21
16.28276272990852
  0
LINE
  5
95
100
AcDbEntity
  8
1
  6
ByLayer
 62
  256
370
   -1
100
AcDbLine
 10
-13.47709905735271
 20
16.48276271257525
 11
-14.16991938038025
 21
16.48276260857565
  0
LINE
  5
96
100
AcDbEntity
  8
1
  6
ByLayer
 62
  256
370
   -1
100
AcDbLine
 10
-13.36162897349268
 20
16.28276272990852
 11
-13.47709905735271
 21
16.48276271257525
  0
LINE
  5
97
100
AcDbEntity
  8
1
  6
ByLayer
 62
  256
370
   -1
100
AcDbLine
 10
-13.47709887722012
 20
15.28276271257526
 11
-14.16991920024767
 21
15.28276260857567
  0
LINE
  5
98
100
AcDbEntity
  8
1
  6
ByLayer
 62
  256
370
   -1
100
AcDbLine
 10
-13.3616288534043
 20
15.48276272990853
 11
-13.47709887722012
 21
15.28276271257526
  0
LINE
  5
99
100
AcDbEntity
  8
1
  6
ByLayer
 62
  256
370
   -1
100
AcDbLine
 10
-9.400859357960401
 20
15.48276332446156
 11
-13.3616288534043
 21
15.48276272990853
  0
LINE
  5
9A
100
AcDbEntity
  8
1
  6
ByLayer
 62
  256
370
   -1
100
AcDbLine
 10
-12.47248665904403
 20
11.65832886480586
 11
-13.16419646202235
 21
12.8564049723263
  0
LINE
  5
9B
100
AcDbEntity
  8
1
  6
ByLayer
 62
  256
370
   -1
100
AcDbLine
 10
-13.16419646202235
 20
12.8564049723263
 11
-13.04872643820652
 21
13.05640498965956
  0
LINE
  5
9C
100
AcDbEntity
  8
1
  6
ByLayer
 62
  256
370
   -1
100
AcDbLine
 10
-13.04872643820652
 20
13.05640498965956
 11
-13.39513668978658
 21
13.65640493765975
  0
LINE
  5
9D
100
AcDbEntity
  8
1
  6
ByLayer
 62
  256
370
   -1
100
AcDbLine
 10
-13.85701672500569
 20
12.45640486832671
 11
-14.08795683268154
 21
12.45640483366017
  0
LINE
  5
9E
100
AcDbEntity
  8
1
  6
ByLayer
 62
  256
370
   -1
100
AcDbLine
 10
-14.08795683268154
 20
12.45640483366017
 11
-14.4343670842616
 21
13.05640478166037
  0
LINE
  5
9F
100
AcDbEntity
  8
1
  6
ByLayer
 62
  256
370
   -1
100
AcDbLine
 10
-13.39624708974741
 20
11.65832872613973
 11
-13.85701672500569
 21
12.45640486832671
  0
LINE
  5
A0
100
AcDbEntity
  8
1
  6
ByLayer
 62
  256
370
   -1
100
AcDbLine
 10
-13.39624696965902
 20
10.85832872613974
 11
-13.85701636531809
 21
10.0602524456201
  0
LINE
  5
A1
100
AcDbEntity
  8
1
  6
ByLayer
 62
  256
370
   -1
100
AcDbLine
 10
-14.08795647299393
 20
10.06025241095357
 11
-14.43436654444141
 21
9.460252358953776
  0
LINE
  5
A2
100
AcDbEntity
  8
1
  6
ByLayer
 62
  256
370
   -1
100
AcDbLine
 10
-13.85701636531809
 20
10.0602524456201
 11
-14.08795647299393
 21
10.06025241095357
  0
LINE
  5
A3
100
AcDbEntity
  8
1
  6
ByLayer
 62
  256
370
   -1
100
AcDbLine
 10
-13.04872589838632
 20
9.460252566952965
 11
-13.39513596983381
 21
8.860252514953174
  0
LINE
  5
A4
100
AcDbEntity
  8
1
  6
ByLayer
 62
  256
370
   -1
100
AcDbLine
 10
-13.16419598224635
 20
9.660252549619694
 11
-13.04872589838632
 21
9.460252566952965
  0
LINE
  5
A5
100
AcDbEntity
  8
1
  6
ByLayer
 62
  256
370
   -1
100
AcDbLine
 10
-12.47248653895564
 20
10.85832886480587
 11
-13.16419598224635
 21
9.660252549619694
  0
LINE
  5
A6
100
AcDbEntity
  8
1
  6
ByLayer
 62
  256
370
   -1
100
AcDbLine
 10
-7.923606342687333
 20
6.863832838585989
 11
-8.616426665714879
 21
6.863832734586394
  0
LINE
  5
A7
100
AcDbEntity
  8
1
  6
ByLayer
 62
  256
370
   -1
100
AcDbLine
 10
-7.808136258827314
 20
6.663832855919258
 11
-7.923606342687333
 21
6.863832838585989
  0
LINE
  5
A8
100
AcDbEntity
  8
1
  6
ByLayer
 62
  256
370
   -1
100
AcDbLine
 10
-7.923606162554757
 20
5.663832838586004
 11
-8.616426485582291
 21
5.663832734586407
  0
LINE
  5
A9
100
AcDbEntity
  8
1
  6
ByLayer
 62
  256
370
   -1
100
AcDbLine
 10
-7.808136138738932
 20
5.863832855919263
 11
-7.923606162554757
 21
5.663832838586004
  0
LINE
  5
AA
100
AcDbEntity
  8
1
  6
ByLayer
 62
  256
370
   -1
100
AcDbLine
 10
-7.313573093279023
 20
11.86747809073978
 11
-9.400859357960401
 21
15.48276332446156
  0
LINE
  5
AB
100
AcDbEntity
  8
1
  6
ByLayer
 62
  256
370
   -1
100
AcDbLine
 10
-12.47248665904403
 20
11.65832886480586
 11
-7.313573093279023
 21
11.86747809073978
  0
LINE
  5
AC
100
AcDbEntity
  8
1
  6
ByLayer
 62
  256
370
   -1
100
AcDbLine
 10
-12.47248653895564
 20
10.85832886480587
 11
-6.610631694972763
 21
10.64994808516755
  0
LINE
  5
AD
100
AcDbEntity
  8
1
  6
ByLayer
 62
  256
370
   -1
100
AcDbLine
 10
-4.432877024285103
 20
6.877967002923631
 11
-7.808136258827314
 21
6.663832855919258
  0
LINE
  5
AE
100
AcDbEntity
  8
1
  6
ByLayer
 62
  256
370
   -1
100
AcDbLine
 10
-4.432877024285103
 20
6.877967002923631
 11
-6.610631694972763
 21
10.64994808516755
  0
LINE
  5
AF
100
AcDbEntity
  8
1
  6
ByLayer
 62
  256
370
   -1
100
AcDbLine
 10
-7.808136138738932
 20
5.863832855919263
 11
-3.732934271441227
 21
5.651875886297727
  0
LINE
  5
B0
100
AcDbEntity
  8
1
  6
ByLayer
 62
  256
370
   -1
100
AcDbLine
 10
-13.37162773886436
 20
21.96033476516723
 11
-13.02521762238373
 21
22.56033479116713
  0
LINE
  5
B1
100
AcDbEntity
  8
1
  6
ByLayer
 62
  256
370
   -1
100
AcDbLine
 10
-12.33239729935618
 20
22.56033484316692
 11
-13.02521762238373
 21
22.56033479116713
  0
LINE
  5
B2
100
AcDbEntity
  8
ref
  6
ByLayer
 62
  256
370
   -1
100
AcDbLine
 10
-6.500000844996705
 20
11.2583297613386
 11
-0.9215862312065428
 21
20.92042729810788
  0
LINE
  5
B3
100
AcDbEntity
  8
ref
  6
ByLayer
 62
  256
370
   -1
100
AcDbLine
 10
-6.500000844996705
 20
11.2583297613386
 11
-17.6568300725769
 21
11.25832808658154
  0
LINE
  5
B4
100
AcDbEntity
  8
1
  6
ByLayer
 62
  256
370
   -1
100
AcDbLine
 10
-1.614406554234092
 20
20.92042729810788
 11
-0.9215862312065428
 21
20.92042729810788
  0
LINE
  5
B5
100
AcDbEntity
  8
1
  6
ByLayer
 62
  256
370
   -1
100
AcDbLine
 10
-0.5751760696927664
 20
20.32042729810788
 11
-0.9215862312065428
 21
20.92042729810788
  0
LINE
  5
B6
100
AcDbEntity
  8
1
  6
ByLayer
 62
  256
370
   -1
100
AcDbLine
 10
-1.960816715747869
 20
20.32042729810788
 11
-1.614406554234092
 21
20.92042729810788
  0
LINE
  5
B7
100
AcDbEntity
  8
1
  6
ByLayer
 62
  256
370
   -1
100
AcDbLine
 10
-0.9215862312065407
 20
19.72042729810788
 11
-0.5751760696927664
 21
20.32042729810788
  0
LINE
  5
B8
100
AcDbEntity
  8
1
  6
ByLayer
 62
  256
370
   -1
100
AcDbLine
 10
-17.31042000112942
 20
11.85832813858133
 11
-17.6568300725769
 21
11.25832808658154
  0
LINE
  5
B9
100
AcDbEntity
  8
1
  6
ByLayer
 62
  256
370
   -1
100
AcDbLine
 10
-17.31041982099684
 20
10.65832813858135
 11
-17.6568300725769
 21
11.25832808658154
  0
LINE
  5
BA
100
AcDbEntity
  8
1
  6
ByLayer
 62
  256
370
   -1
100
AcDbLine
 10
-16.61759967810188
 20
11.85832824258093
 11
-17.31042000112942
 21
11.85832813858133
  0
LINE
  5
BB
100
AcDbEntity
  8
1
  6
ByLayer
 62
  256
370
   -1
100
AcDbLine
 10
-16.61759949796929
 20
10.65832824258094
 11
-17.31041982099684
 21
10.65832813858135
  0
LINE
  5
BC
100
AcDbEntity
  8
1
  6
ByLayer
 62
  256
370
   -1
100
AcDbLine
 10
-13.39624708974741
 20
11.65832872613973
 11
-16.50212959424186
 21
11.6583282599142
  0
LINE
  5
BD
100
AcDbEntity
  8
1
  6
ByLayer
 62
  256
370
   -1
100
AcDbLine
 10
-16.50212959424186
 20
11.6583282599142
 11
-16.61759967810188
 21
11.85832824258093
  0
LINE
  5
BE
100
AcDbEntity
  8
1
  6
ByLayer
 62
  256
370
   -1
100
AcDbLine
 10
-13.39624696965902
 20
10.85832872613974
 11
-16.50212947415347
 21
10.85832825991421
  0
LINE
  5
BF
100
AcDbEntity
  8
1
  6
ByLayer
 62
  256
370
   -1
100
AcDbLine
 10
-16.50212947415347
 20
10.85832825991421
 11
-16.61759949796929
 21
10.65832824258094
  0
LINE
  5
C0
100
AcDbEntity
  8
1
  6
ByLayer
 62
  256
370
   -1
100
AcDbLine
 10
-3.398287914157181
 20
17.43065414804603
 11
-1.845346661909944
 21
20.12042729810788
  0
LINE
  5
C1
100
AcDbEntity
  8
1
  6
ByLayer
 62
  256
370
   -1
100
AcDbLine
 10
-1.845346661909944
 20
20.12042729810788
 11
-1.960816715747869
 21
20.32042729810788
  0
LINE
  5
C2
100
AcDbEntity
  8
1
  6
ByLayer
 62
  256
370
   -1
100
AcDbLine
 10
-2.705467591129629
 20
17.03065414804603
 11
-1.152526338882393
 21
19.72042729810788
  0
LINE
  5
C3
100
AcDbEntity
  8
1
  6
ByLayer
 62
  256
370
   -1
100
AcDbLine
 10
-1.152526338882393
 20
19.72042729810788
 11
-0.9215862312065407
 21
19.72042729810788
  0
LINE
  5
C4
100
AcDbEntity
  8
1
  6
ByLayer
 62
  256
370
   -1
100
AcDbLine
 10
-10.25246745330083
 20
4.030126476058713
 11
-9.906057291787056
 21
4.630126476058711
  0
LINE
  5
C5
100
AcDbEntity
  8
1
  6
ByLayer
 62
  256
370
   -1
100
AcDbLine
 10
-9.213236968759499
 20
4.630126476058712
 11
-9.906057291787056
 21
4.630126476058711
  0
LINE
  5
C6
100
AcDbEntity
  8
1
  6
ByLayer
 62
  256
370
   -1
100
AcDbLine
 10
-21.35945143872927
 20
4.030125642421331
 11
-21.01304127721549
 21
4.630125642421327
  0
LINE
  5
C7
100
AcDbEntity
  8
1
  6
ByLayer
 62
  256
370
   -1
100
AcDbLine
 10
-20.32022095418793
 20
4.630125642421326
 11
-21.01304127721549
 21
4.630125642421327
  0
LINE
  5
C8
100
AcDbEntity
  8
1
  6
ByLayer
 62
  256
370
   -1
100
AcDbLine
 10
-18.52436266164988
 20
4.772323410989268
 11
-18.87077282316366
 21
5.372323410989265
  0
LINE
  5
C9
100
AcDbEntity
  8
1
  6
ByLayer
 62
  256
370
   -1
100
AcDbLine
 10
-18.52436266164988
 20
5.972323410989267
 11
-18.87077282316366
 21
5.372323410989265
  0
LINE
  5
CA
100
AcDbEntity
  8
1
  6
ByLayer
 62
  256
370
   -1
100
AcDbLine
 10
-15.41000330770498
 20
7.770399622342586
 11
-14.71718298467743
 21
7.770399622342584
  0
LINE
  5
CB
100
AcDbEntity
  8
1
  6
ByLayer
 62
  256
370
   -1
100
AcDbLine
 10
-14.37077282316365
 20
7.170399622342584
 11
-14.71718298467743
 21
7.770399622342584
  0
LINE
  5
CC
100
AcDbEntity
  8
1
  6
ByLayer
 62
  256
370
   -1
100
AcDbLine
 10
-25.01120135867212
 20
0.59999812277821
 11
-25.70402174174387
 21
0.5999980707784009
  0
LINE
  5
CD
100
AcDbEntity
  8
1
  6
ByLayer
 62
  256
370
   -1
100
AcDbLine
 10
-24.89573130983788
 20
0.3999981314448287
 11
-25.01120135867212
 21
0.59999812277821
  0
LINE
  5
CE
100
AcDbEntity
  8
1
  6
ByLayer
 62
  256
370
   -1
100
AcDbLine
 10
-19.03265648946406
 20
0.3999985714993454
 11
-24.89573130983788
 21
0.3999981314448287
  0
LINE
  5
CF
100
AcDbEntity
  8
1
  6
ByLayer
 62
  256
370
   -1
100
AcDbLine
 10
-19.03265648946406
 20
0.3999985714993454
 11
-20.78210116953964
 21
3.430125642421335
  0
LINE
  5
D0
100
AcDbEntity
  8
1
  6
ByLayer
 62
  256
370
   -1
100
AcDbLine
 10
-21.01304127721549
 20
3.430125642421325
 11
-21.35945143872927
 21
4.030125642421331
  0
LINE
  5
D1
100
AcDbEntity
  8
1
  6
ByLayer
 62
  256
370
   -1
100
AcDbLine
 10
-20.78210116953964
 20
3.430125642421335
 11
-21.01304127721549
 21
3.430125642421325
  0
LINE
  5
D2
100
AcDbEntity
  8
1
  6
ByLayer
 62
  256
370
   -1
100
AcDbLine
 10
-19.97381079267416
 20
4.030125642421326
 11
-20.32022095418793
 21
4.630125642421326
  0
LINE
  5
D3
100
AcDbEntity
  8
1
  6
ByLayer
 62
  256
370
   -1
100
AcDbLine
 10
-20.08928084651209
 20
3.83012564242133
 11
-19.97381079267416
 21
4.030125642421326
  0
LINE
  5
D4
100
AcDbEntity
  8
1
  6
ByLayer
 62
  256
370
   -1
100
AcDbLine
 10
-18.10889609879012
 20
0.3999986408324108
 11
-20.08928084651209
 21
3.83012564242133
  0
LINE
  5
D5
100
AcDbEntity
  8
1
  6
ByLayer
 62
  256
370
   -1
100
AcDbLine
 10
-16.33265303851535
 20
4.972323410989267
 11
-17.7160722847844
 21
4.972323410989273
  0
LINE
  5
D6
100
AcDbEntity
  8
1
  6
ByLayer
 62
  256
370
   -1
100
AcDbLine
 10
-17.7160722847844
 20
4.972323410989273
 11
-17.83154233862233
 21
4.772323410989265
  0
LINE
  5
D7
100
AcDbEntity
  8
1
  6
ByLayer
 62
  256
370
   -1
100
AcDbLine
 10
-17.83154233862233
 20
4.772323410989265
 11
-18.52436266164988
 21
4.772323410989268
  0
LINE
  5
D8
100
AcDbEntity
  8
1
  6
ByLayer
 62
  256
370
   -1
100
AcDbLine
 10
-17.7160722847844
 20
5.772323410989268
 11
-17.83154233862232
 21
5.972323410989265
  0
LINE
  5
D9
100
AcDbEntity
  8
1
  6
ByLayer
 62
  256
370
   -1
100
AcDbLine
 10
-17.83154233862232
 20
5.972323410989265
 11
-18.52436266164988
 21
5.972323410989267
  0
LINE
  5
DA
100
AcDbEntity
  8
1
  6
ByLayer
 62
  256
370
   -1
100
AcDbLine
 10
-16.79453325386705
 20
5.77232341098926
 11
-17.7160722847844
 21
5.772323410989268
  0
LINE
  5
DB
100
AcDbEntity
  8
1
  6
ByLayer
 62
  256
370
   -1
100
AcDbLine
 10
-16.1017129308395
 20
6.172323410989269
 11
-15.64094341538083
 21
6.970399622342584
  0
LINE
  5
DC
100
AcDbEntity
  8
1
  6
ByLayer
 62
  256
370
   -1
100
AcDbLine
 10
-15.75641346921875
 20
7.170399622342583
 11
-15.41000330770498
 21
7.770399622342586
  0
LINE
  5
DD
100
AcDbEntity
  8
1
  6
ByLayer
 62
  256
370
   -1
100
AcDbLine
 10
-15.64094341538083
 20
6.970399622342584
 11
-15.75641346921875
 21
7.170399622342583
  0
LINE
  5
DE
100
AcDbEntity
  8
1
  6
ByLayer
 62
  256
370
   -1
100
AcDbLine
 10
-14.71718298467743
 20
6.570399622342586
 11
-14.37077282316365
 21
7.170399622342584
  0
LINE
  5
DF
100
AcDbEntity
  8
1
  6
ByLayer
 62
  256
370
   -1
100
AcDbLine
 10
-14.94812309235327
 20
6.570399622342584
 11
-14.71718298467743
 21
6.570399622342586
  0
LINE
  5
E0
100
AcDbEntity
  8
1
  6
ByLayer
 62
  256
370
   -1
100
AcDbLine
 10
-15.6398327154878
 20
5.372323410989265
 11
-14.94812309235327
 21
6.570399622342584
  0
LINE
  5
E1
100
AcDbEntity
  8
1
  6
ByLayer
 62
  256
370
   -1
100
AcDbLine
 10
-9.906057291787052
 20
3.430126476058712
 11
-10.25246745330083
 21
4.030126476058713
  0
LINE
  5
E2
100
AcDbEntity
  8
1
  6
ByLayer
 62
  256
370
   -1
100
AcDbLine
 10
-9.675117184111205
 20
3.430126476058709
 11
-9.906057291787052
 21
3.430126476058712
  0
LINE
  5
E3
100
AcDbEntity
  8
1
  6
ByLayer
 62
  256
370
   -1
100
AcDbLine
 10
-8.866826807245728
 20
4.030126476058713
 11
-9.213236968759499
 21
4.630126476058712
  0
LINE
  5
E4
100
AcDbEntity
  8
1
  6
ByLayer
 62
  256
370
   -1
100
AcDbLine
 10
-8.982296861083654
 20
3.830126476058715
 11
-8.866826807245728
 21
4.030126476058713
  0
LINE
  5
E5
100
AcDbEntity
  8
1
  6
ByLayer
 62
  256
370
   -1
100
AcDbLine
 10
-13.93432411211961
 20
0.3999989541559129
 11
-18.10889609879012
 21
0.3999986408324108
  0
LINE
  5
E6
100
AcDbEntity
  8
1
  6
ByLayer
 62
  256
370
   -1
100
AcDbLine
 10
-16.33265303851535
 20
4.972323410989267
 11
-13.93432411211961
 21
0.3999989541559129
  0
LINE
  5
E7
100
AcDbEntity
  8
1
  6
ByLayer
 62
  256
370
   -1
100
AcDbLine
 10
-15.6398327154878
 20
5.372323410989265
 11
-12.52844149827111
 21
0.3999990596747814
  0
LINE
  5
E8
100
AcDbEntity
  8
1
  6
ByLayer
 62
  256
370
   -1
100
AcDbLine
 10
-8.172932723109726
 20
0.3999993865785474
 11
-9.675117184111205
 21
3.430126476058709
  0
LINE
  5
E9
100
AcDbEntity
  8
1
  6
ByLayer
 62
  256
370
   -1
100
AcDbLine
 10
-8.172932723109726
 20
0.3999993865785474
 11
-12.52844149827111
 21
0.3999990596747814
  0
LINE
  5
EA
100
AcDbEntity
  8
1
  6
ByLayer
 62
  256
370
   -1
100
AcDbLine
 10
-8.982296861083654
 20
3.830126476058715
 11
-6.761135293367708
 21
0.4068769516594938
  0
LINE
  5
EB
100
AcDbEntity
  8
1
  6
ByLayer
 62
  256
370
   -1
100
AcDbLine
 10
-10.25246684833647
 20
-4.030128015061539
 11
-9.906056596756407
 21
-4.630127963061728
  0
LINE
  5
EC
100
AcDbEntity
  8
1
  6
ByLayer
 62
  256
370
   -1
100
AcDbLine
 10
-9.21323627372886
 20
-4.630127859062134
 11
-9.906056596756407
 21
-4.630127963061728
  0
LINE
  5
ED
100
AcDbEntity
  8
1
  6
ByLayer
 62
  256
370
   -1
100
AcDbLine
 10
-21.35945083376491
 20
-4.030128848698912
 11
-21.01304058218485
 21
-4.630128796699105
  0
LINE
  5
EE
100
AcDbEntity
  8
1
  6
ByLayer
 62
  256
370
   -1
100
AcDbLine
 10
-20.3202202591573
 20
-4.630128692699516
 11
-21.01304058218485
 21
-4.630128796699105
  0
LINE
  5
EF
100
AcDbEntity
  8
1
  6
ByLayer
 62
  256
370
   -1
100
AcDbLine
 10
-18.52436194527388
 20
-4.772326191690288
 11
-18.87077201672136
 21
-5.37232624369009
  0
LINE
  5
F0
100
AcDbEntity
  8
1
  6
ByLayer
 62
  256
370
   -1
100
AcDbLine
 10
-18.5243617651413
 20
-5.972326191690273
 11
-18.87077201672136
 21
-5.37232624369009
  0
LINE
  5
F1
100
AcDbEntity
  8
1
  6
ByLayer
 62
  256
370
   -1
100
AcDbLine
 10
-15.41000214128634
 20
-7.770401935545576
 11
-14.7171818182588
 21
-7.770401831545979
  0
LINE
  5
F2
100
AcDbEntity
  8
1
  6
ByLayer
 62
  256
370
   -1
100
AcDbLine
 10
-14.37077174681132
 20
-7.170401779546189
 11
-14.7171818182588
 21
-7.770401831545979
  0
LINE
  5
F3
100
AcDbEntity
  8
1
  6
ByLayer
 62
  256
370
   -1
100
AcDbLine
 10
-25.01120126860584
 20
-0.6000018772217841
 11
-25.70402165167758
 21
-0.6000019292216019
  0
LINE
  5
F4
100
AcDbEntity
  8
1
  6
ByLayer
 62
  256
370
   -1
100
AcDbLine
 10
-24.89573124979369
 20
-0.4000018685551619
 11
-25.01120126860584
 21
-0.6000018772217841
  0
LINE
  5
F5
100
AcDbEntity
  8
1
  6
ByLayer
 62
  256
370
   -1
100
AcDbLine
 10
-19.03265642941987
 20
-0.4000014285006652
 11
-24.89573124979369
 21
-0.4000018685551619
  0
LINE
  5
F6
100
AcDbEntity
  8
1
  6
ByLayer
 62
  256
370
   -1
100
AcDbLine
 10
-19.03265642941987
 20
-0.4000014285006652
 11
-20.78210065464157
 21
-3.430128762032593
  0
LINE
  5
F7
100
AcDbEntity
  8
1
  6
ByLayer
 62
  256
370
   -1
100
AcDbLine
 10
-21.01304076231743
 20
-3.430128796699135
 11
-21.35945083376491
 21
-4.030128848698912
  0
LINE
  5
F8
100
AcDbEntity
  8
1
  6
ByLayer
 62
  256
370
   -1
100
AcDbLine
 10
-20.78210065464157
 20
-3.430128762032593
 11
-21.01304076231743
 21
-3.430128796699135
  0
LINE
  5
F9
100
AcDbEntity
  8
1
  6
ByLayer
 62
  256
370
   -1
100
AcDbLine
 10
-19.97381018770982
 20
-4.030128640699735
 11
-20.3202202591573
 21
-4.630128692699516
  0
LINE
  5
FA
100
AcDbEntity
  8
1
  6
ByLayer
 62
  256
370
   -1
100
AcDbLine
 10
-20.08928027156984
 20
-3.83012865803299
 11
-19.97381018770982
 21
-4.030128640699735
  0
LINE
  5
FB
100
AcDbEntity
  8
1
  6
ByLayer
 62
  256
370
   -1
100
AcDbLine
 10
-18.10889603874592
 20
-0.4000013591675929
 11
-20.08928027156984
 21
-3.83012865803299
  0
LINE
  5
FC
100
AcDbEntity
  8
1
  6
ByLayer
 62
  256
370
   -1
100
AcDbLine
 10
-16.33265229211728
 20
-4.972325862691696
 11
-17.71607153838632
 21
-4.972326070357431
  0
LINE
  5
FD
100
AcDbEntity
  8
1
  6
ByLayer
 62
  256
370
   -1
100
AcDbLine
 10
-17.71607153838632
 20
-4.972326070357431
 11
-17.83154162224634
 21
-4.772326087690697
  0
LINE
  5
FE
100
AcDbEntity
  8
1
  6
ByLayer
 62
  256
370
   -1
100
AcDbLine
 10
-17.83154162224634
 20
-4.772326087690697
 11
-18.52436194527388
 21
-4.772326191690288
  0
LINE
  5
FF
100
AcDbEntity
  8
1
  6
ByLayer
 62
  256
370
   -1
100
AcDbLine
 10
-17.71607141829793
 20
-5.772326070357416
 11
-17.83154144211376
 21
-5.972326087690687
  0
LINE
  5
100
100
AcDbEntity
  8
1
  6
ByLayer
 62
  256
370
   -1
100
AcDbLine
 10
-17.83154144211376
 20
-5.972326087690687
 11
-18.5243617651413
 21
-5.972326191690273
  0
LINE
  5
101
100
AcDbEntity
  8
1
  6
ByLayer
 62
  256
370
   -1
100
AcDbLine
 10
-16.79453238738058
 20
-5.772325932024751
 11
-17.71607141829793
 21
-5.772326070357416
  0
LINE
  5
102
100
AcDbEntity
  8
1
  6
ByLayer
 62
  256
370
   -1
100
AcDbLine
 10
-16.10171200430885
 20
-6.172325828025151
 11
-15.64094236905058
 21
-6.970401970212117
  0
LINE
  5
103
100
AcDbEntity
  8
1
  6
ByLayer
 62
  256
370
   -1
100
AcDbLine
 10
-15.7564123928664
 20
-7.170401987545384
 11
-15.41000214128634
 21
-7.770401935545576
  0
LINE
  5
104
100
AcDbEntity
  8
1
  6
ByLayer
 62
  256
370
   -1
100
AcDbLine
 10
-15.64094236905058
 20
-6.970401970212117
 11
-15.7564123928664
 21
-7.170401987545384
  0
LINE
  5
105
100
AcDbEntity
  8
1
  6
ByLayer
 62
  256
370
   -1
100
AcDbLine
 10
-14.71718199839137
 20
-6.570401831545999
 11
-14.37077174681132
 21
-7.170401779546189
  0
LINE
  5
106
100
AcDbEntity
  8
1
  6
ByLayer
 62
  256
370
   -1
100
AcDbLine
 10
-14.94812210606722
 20
-6.570401866212523
 11
-14.71718199839137
 21
-6.570401831545999
  0
LINE
  5
107
100
AcDbEntity
  8
1
  6
ByLayer
 62
  256
370
   -1
100
AcDbLine
 10
-15.63983190904555
 20
-5.372325758692089
 11
-14.94812210606722
 21
-6.570401866212523
  0
LINE
  5
108
100
AcDbEntity
  8
1
  6
ByLayer
 62
  256
370
   -1
100
AcDbLine
 10
-9.906056776888986
 20
-3.430127963061743
 11
-10.25246684833647
 21
-4.030128015061539
  0
LINE
  5
109
100
AcDbEntity
  8
1
  6
ByLayer
 62
  256
370
   -1
100
AcDbLine
 10
-9.675116669213145
 20
-3.430127928395208
 11
-9.906056776888986
 21
-3.430127963061743
  0
LINE
  5
10A
100
AcDbEntity
  8
1
  6
ByLayer
 62
  256
370
   -1
100
AcDbLine
 10
-8.866826202281388
 20
-4.030127807062345
 11
-9.21323627372886
 21
-4.630127859062134
  0
LINE
  5
10B
100
AcDbEntity
  8
1
  6
ByLayer
 62
  256
370
   -1
100
AcDbLine
 10
-8.982296286141406
 20
-3.830127824395614
 11
-8.866826202281388
 21
-4.030127807062345
  0
LINE
  5
10C
100
AcDbEntity
  8
1
  6
ByLayer
 62
  256
370
   -1
100
AcDbLine
 10
-13.93432405207541
 20
-0.4000010458440793
 11
-18.10889603874592
 21
-0.4000013591675929
  0
LINE
  5
10D
100
AcDbEntity
  8
1
  6
ByLayer
 62
  256
370
   -1
100
AcDbLine
 10
-16.33265229211728
 20
-4.972325862691696
 11
-13.93432405207541
 21
-0.4000010458440793
  0
LINE
  5
10E
100
AcDbEntity
  8
1
  6
ByLayer
 62
  256
370
   -1
100
AcDbLine
 10
-15.63983190904555
 20
-5.372325758692089
 11
-12.52844143822692
 21
-0.400000940325225
  0
LINE
  5
10F
100
AcDbEntity
  8
1
  6
ByLayer
 62
  256
370
   -1
100
AcDbLine
 10
-8.172932663065534
 20
-0.4000006134214499
 11
-9.675116669213145
 21
-3.430127928395208
  0
LINE
  5
110
100
AcDbEntity
  8
1
  6
ByLayer
 62
  256
370
   -1
100
AcDbLine
 10
-8.172932663065534
 20
-0.4000006134214499
 11
-12.52844143822692
 21
-0.400000940325225
  0
LINE
  5
111
100
AcDbEntity
  8
1
  6
ByLayer
 62
  256
370
   -1
100
AcDbLine
 10
-8.982296286141406
 20
-3.830127824395614
 11
-6.761135232291134
 21
-0.406877966576791
  0
LINE
  5
112
100
AcDbEntity
  8
1
  6
ByLayer
 62
  256
370
   -1
100
AcDbLine
 10
-25.70402165167758
 20
-0.6000019292216019
 11
-26.0504318582245
 21
-1.9552214878e-06
  0
LINE
  5
113
100
AcDbEntity
  8
1
  6
ByLayer
 62
  256
370
   -1
100
AcDbLine
 10
-25.70402174174387
 20
0.5999980707784009
 11
-26.0504318582245
 21
-1.9552214878e-06
  0
LINE
  5
114
100
AcDbEntity
  8
1
  6
ByLayer
 62
  256
370
   -1
100
AcDbLine
 10
-18.92482477530391
 20
9.062096561051115
 11
-18.57841461379013
 21
9.662096561051122
  0
LINE
  5
115
100
AcDbEntity
  8
1
  6
ByLayer
 62
  256
370
   -1
100
AcDbLine
 10
-17.88559429076259
 20
9.662096561051113
 11
-18.57841461379013
 21
9.662096561051122
  0
LINE
  5
116
100
AcDbEntity
  8
1
  6
ByLayer
 62
  256
370
   -1
100
AcDbLine
 10
-18.57841461379013
 20
8.462096561051119
 11
-18.92482477530391
 21
9.062096561051115
  0
LINE
  5
117
100
AcDbEntity
  8
1
  6
ByLayer
 62
  256
370
   -1
100
AcDbLine
 10
-17.53918412924881
 20
9.062096561051121
 11
-17.88559429076259
 21
9.662096561051113
  0
LINE
  5
118
100
AcDbEntity
  8
1
  6
ByLayer
 62
  256
370
   -1
100
AcDbLine
 10
-18.92482341498797
 20
-9.062099401865664
 11
-18.57841316340792
 21
-9.662099349865853
  0
LINE
  5
119
100
AcDbEntity
  8
1
  6
ByLayer
 62
  256
370
   -1
100
AcDbLine
 10
-17.88559284038039
 20
-9.662099245866253
 11
-18.57841316340792
 21
-9.662099349865853
  0
LINE
  5
11A
100
AcDbEntity
  8
1
  6
ByLayer
 62
  256
370
   -1
100
AcDbLine
 10
-18.57841334354051
 20
-8.462099349865866
 11
-18.92482341498797
 21
-9.062099401865664
  0
LINE
  5
11B
100
AcDbEntity
  8
1
  6
ByLayer
 62
  256
370
   -1
100
AcDbLine
 10
-17.53918276893289
 20
-9.062099193866471
 11
-17.88559284038039
 21
-9.662099245866253
  0
LINE
  5
11C
100
AcDbEntity
  8
1
  6
ByLayer
 62
  256
370
   -1
100
AcDbLine
 10
-16.79453238738058
 20
-5.772325932024751
 11
-18.34747323586466
 21
-8.462099315199337
  0
LINE
  5
11D
100
AcDbEntity
  8
1
  6
ByLayer
 62
  256
370
   -1
100
AcDbLine
 10
-18.34747323586466
 20
-8.462099315199337
 11
-18.57841334354051
 21
-8.462099349865866
  0
LINE
  5
11E
100
AcDbEntity
  8
1
  6
ByLayer
 62
  256
370
   -1
100
AcDbLine
 10
-16.10171200430885
 20
-6.172325828025151
 11
-17.65465285279292
 21
-8.862099211199737
  0
LINE
  5
11F
100
AcDbEntity
  8
1
  6
ByLayer
 62
  256
370
   -1
100
AcDbLine
 10
-17.65465285279292
 20
-8.862099211199737
 11
-17.53918276893289
 21
-9.062099193866471
  0
LINE
  5
120
100
AcDbEntity
  8
1
  6
ByLayer
 62
  256
370
   -1
100
AcDbLine
 10
-16.79453325386705
 20
5.77232341098926
 11
-18.34747450611429
 21
8.462096561051114
  0
LINE
  5
121
100
AcDbEntity
  8
1
  6
ByLayer
 62
  256
370
   -1
100
AcDbLine
 10
-18.34747450611429
 20
8.462096561051114
 11
-18.57841461379013
 21
8.462096561051119
  0
LINE
  5
122
100
AcDbEntity
  8
1
  6
ByLayer
 62
  256
370
   -1
100
AcDbLine
 10
-16.1017129308395
 20
6.172323410989269
 11
-17.65465418308674
 21
8.862096561051114
  0
LINE
  5
123
100
AcDbEntity
  8
1
  6
ByLayer
 62
  256
370
   -1
100
AcDbLine
 10
-17.65465418308674
 20
8.862096561051114
 11
-17.53918412924881
 21
9.062096561051121
  0
LINE
  5
124
100
AcDbEntity
  8
1
  6
ByLayer
 62
  256
370
   -1
100
AcDbLine
 10
-8.616425635381518
 20
-6.86383402800231
 11
-8.962835796895295
 21
-6.263834028002308
  0
LINE
  5
125
100
AcDbEntity
  8
1
  6
ByLayer
 62
  256
370
   -1
100
AcDbLine
 10
-8.616425635381516
 20
-5.663834028002309
 11
-8.962835796895295
 21
-6.263834028002308
  0
LINE
  5
126
100
AcDbEntity
  8
1
  6
ByLayer
 62
  256
370
   -1
100
AcDbLine
 10
-14.16991690614459
 20
-16.48276473562895
 11
-14.51632706765836
 21
-15.88276473562895
  0
LINE
  5
127
100
AcDbEntity
  8
1
  6
ByLayer
 62
  256
370
   -1
100
AcDbLine
 10
-14.16991690614458
 20
-15.28276473562896
 11
-14.51632706765836
 21
-15.88276473562895
  0
LINE
  5
128
100
AcDbEntity
  8
1
  6
ByLayer
 62
  256
370
   -1
100
AcDbLine
 10
-13.39513463981685
 20
-13.65640694841007
 11
-14.0879549628444
 21
-13.65640694841008
  0
LINE
  5
129
100
AcDbEntity
  8
1
  6
ByLayer
 62
  256
370
   -1
100
AcDbLine
 10
-14.43436512435818
 20
-13.05640694841007
 11
-14.0879549628444
 21
-13.65640694841008
  0
LINE
  5
12A
100
AcDbEntity
  8
1
  6
ByLayer
 62
  256
370
   -1
100
AcDbLine
 10
-14.43436512435817
 20
-9.460254525703448
 11
-14.0879549628444
 21
-8.860254525703441
  0
LINE
  5
12B
100
AcDbEntity
  8
1
  6
ByLayer
 62
  256
370
   -1
100
AcDbLine
 10
-13.39513463981685
 20
-8.860254525703446
 11
-14.0879549628444
 21
-8.860254525703441
  0
LINE
  5
12C
100
AcDbEntity
  8
1
  6
ByLayer
 62
  256
370
   -1
100
AcDbLine
 10
-13.02521429588497
 20
-21.36033669438882
 11
-13.37162444238769
 21
-21.96033677238852
  0
LINE
  5
12D
100
AcDbEntity
  8
1
  6
ByLayer
 62
  256
370
   -1
100
AcDbLine
 10
-12.79427419821648
 20
-21.36033669438883
 11
-13.02521429588497
 21
-21.36033669438882
  0
LINE
  5
12E
100
AcDbEntity
  8
1
  6
ByLayer
 62
  256
370
   -1
100
AcDbLine
 10
-9.862737169127955
 20
-16.28276473562896
 11
-12.79427419821648
 21
-21.36033669438883
  0
LINE
  5
12F
100
AcDbEntity
  8
1
  6
ByLayer
 62
  256
370
   -1
100
AcDbLine
 10
-9.862737169127955
 20
-16.28276473562896
 11
-13.36162652927912
 21
-16.28276473562895
  0
LINE
  5
130
100
AcDbEntity
  8
1
  6
ByLayer
 62
  256
370
   -1
100
AcDbLine
 10
-13.47709658311704
 20
-16.48276473562895
 11
-14.16991690614459
 21
-16.48276473562895
  0
LINE
  5
131
100
AcDbEntity
  8
1
  6
ByLayer
 62
  256
370
   -1
100
AcDbLine
 10
-13.36162652927912
 20
-16.28276473562895
 11
-13.47709658311704
 21
-16.48276473562895
  0
LINE
  5
132
100
AcDbEntity
  8
1
  6
ByLayer
 62
  256
370
   -1
100
AcDbLine
 10
-13.47709658311704
 20
-15.28276473562895
 11
-14.16991690614458
 21
-15.28276473562896
  0
LINE
  5
133
100
AcDbEntity
  8
1
  6
ByLayer
 62
  256
370
   -1
100
AcDbLine
 10
-13.36162652927911
 20
-15.48276473562895
 11
-13.47709658311704
 21
-15.28276473562895
  0
LINE
  5
134
100
AcDbEntity
  8
1
  6
ByLayer
 62
  256
370
   -1
100
AcDbLine
 10
-9.40085703383518
 20
-15.48276473562895
 11
-13.36162652927911
 21
-15.48276473562895
  0
LINE
  5
135
100
AcDbEntity
  8
1
  6
ByLayer
 62
  256
370
   -1
100
AcDbLine
 10
-12.47248490900647
 20
-11.65833073705677
 11
-13.164194532141
 21
-12.85640694841008
  0
LINE
  5
136
100
AcDbEntity
  8
1
  6
ByLayer
 62
  256
370
   -1
100
AcDbLine
 10
-13.164194532141
 20
-12.85640694841008
 11
-13.04872447830307
 21
-13.05640694841009
  0
LINE
  5
137
100
AcDbEntity
  8
1
  6
ByLayer
 62
  256
370
   -1
100
AcDbLine
 10
-13.04872447830307
 20
-13.05640694841009
 11
-13.39513463981685
 21
-13.65640694841007
  0
LINE
  5
138
100
AcDbEntity
  8
1
  6
ByLayer
 62
  256
370
   -1
100
AcDbLine
 10
-13.85701485516855
 20
-12.45640694841008
 11
-14.0879549628444
 21
-12.45640694841008
  0
LINE
  5
139
100
AcDbEntity
  8
1
  6
ByLayer
 62
  256
370
   -1
100
AcDbLine
 10
-14.0879549628444
 20
-12.45640694841008
 11
-14.43436512435818
 21
-13.05640694841007
  0
LINE
  5
13A
100
AcDbEntity
  8
1
  6
ByLayer
 62
  256
370
   -1
100
AcDbLine
 10
-13.39624533970987
 20
-11.65833073705676
 11
-13.85701485516855
 21
-12.45640694841008
  0
LINE
  5
13B
100
AcDbEntity
  8
1
  6
ByLayer
 62
  256
370
   -1
100
AcDbLine
 10
-13.39624533970988
 20
-10.85833073705677
 11
-13.85701485516855
 21
-10.06025452570344
  0
LINE
  5
13C
100
AcDbEntity
  8
1
  6
ByLayer
 62
  256
370
   -1
100
AcDbLine
 10
-14.0879549628444
 20
-10.06025452570345
 11
-14.43436512435817
 21
-9.460254525703448
  0
LINE
  5
13D
100
AcDbEntity
  8
1
  6
ByLayer
 62
  256
370
   -1
100
AcDbLine
 10
-13.85701485516855
 20
-10.06025452570344
 11
-14.0879549628444
 21
-10.06025452570345
  0
LINE
  5
13E
100
AcDbEntity
  8
1
  6
ByLayer
 62
  256
370
   -1
100
AcDbLine
 10
-13.04872447830307
 20
-9.460254525703446
 11
-13.39513463981685
 21
-8.860254525703446
  0
LINE
  5
13F
100
AcDbEntity
  8
1
  6
ByLayer
 62
  256
370
   -1
100
AcDbLine
 10
-13.164194532141
 20
-9.66025452570344
 11
-13.04872447830307
 21
-9.460254525703446
  0
LINE
  5
140
100
AcDbEntity
  8
1
  6
ByLayer
 62
  256
370
   -1
100
AcDbLine
 10
-12.47248490900647
 20
-10.85833073705676
 11
-13.164194532141
 21
-9.66025452570344
  0
LINE
  5
141
100
AcDbEntity
  8
1
  6
ByLayer
 62
  256
370
   -1
100
AcDbLine
 10
-7.923605312353968
 20
-6.863834028002306
 11
-8.616425635381518
 21
-6.86383402800231
  0
LINE
  5
142
100
AcDbEntity
  8
1
  6
ByLayer
 62
  256
370
   -1
100
AcDbLine
 10
-7.808135258516042
 20
-6.663834028002309
 11
-7.923605312353968
 21
-6.863834028002306
  0
LINE
  5
143
100
AcDbEntity
  8
1
  6
ByLayer
 62
  256
370
   -1
100
AcDbLine
 10
-7.92360531235397
 20
-5.663834028002307
 11
-8.616425635381516
 21
-5.663834028002309
  0
LINE
  5
144
100
AcDbEntity
  8
1
  6
ByLayer
 62
  256
370
   -1
100
AcDbLine
 10
-7.808135258516047
 20
-5.863834028002307
 11
-7.92360531235397
 21
-5.663834028002307
  0
LINE
  5
145
100
AcDbEntity
  8
1
  6
ByLayer
 62
  256
370
   -1
100
AcDbLine
 10
-7.313571311846036
 20
-11.86747918858366
 11
-9.40085703383518
 21
-15.48276473562895
  0
LINE
  5
146
100
AcDbEntity
  8
1
  6
ByLayer
 62
  256
370
   -1
100
AcDbLine
 10
-12.47248490900647
 20
-11.65833073705677
 11
-7.313571311846036
 21
-11.86747918858366
  0
LINE
  5
147
100
AcDbEntity
  8
1
  6
ByLayer
 62
  256
370
   -1
100
AcDbLine
 10
-12.47248490900647
 20
-10.85833073705676
 11
-6.610630096303806
 21
-10.64994907749256
  0
LINE
  5
148
100
AcDbEntity
  8
1
  6
ByLayer
 62
  256
370
   -1
100
AcDbLine
 10
-4.43287599183008
 20
-6.877967668344878
 11
-7.808135258516042
 21
-6.663834028002309
  0
LINE
  5
149
100
AcDbEntity
  8
1
  6
ByLayer
 62
  256
370
   -1
100
AcDbLine
 10
-4.43287599183008
 20
-6.877967668344878
 11
-6.610630096303806
 21
-10.64994907749256
  0
LINE
  5
14A
100
AcDbEntity
  8
1
  6
ByLayer
 62
  256
370
   -1
100
AcDbLine
 10
-7.808135258516047
 20
-5.863834028002307
 11
-3.73293342303535
 21
-5.651876446650241
  0
LINE
  5
14B
100
AcDbEntity
  8
1
  6
ByLayer
 62
  256
370
   -1
100
AcDbLine
 10
-1.63604018262159
 20
-10.89396074964793
 11
-0.9432198595940536
 21
-10.89396064564833
  0
LINE
  5
14C
100
AcDbEntity
  8
1
  6
ByLayer
 62
  256
370
   -1
100
AcDbLine
 10
-0.5968097881465704
 20
-10.29396059364854
 11
-0.9432198595940536
 21
-10.89396064564833
  0
LINE
  5
14D
100
AcDbEntity
  8
1
  6
ByLayer
 62
  256
370
   -1
100
AcDbLine
 10
-7.189531453384652
 20
-20.51289145727458
 11
-6.496711130357113
 21
-20.51289135327498
  0
LINE
  5
14E
100
AcDbEntity
  8
1
  6
ByLayer
 62
  256
370
   -1
100
AcDbLine
 10
-6.150301058909623
 20
-19.91289130127519
 11
-6.496711130357113
 21
-20.51289135327498
  0
LINE
  5
14F
100
AcDbEntity
  8
1
  6
ByLayer
 62
  256
370
   -1
100
AcDbLine
 10
-5.129225255487297
 20
-18.42873112935005
 11
-4.782815003907238
 21
-19.02873107735024
  0
LINE
  5
150
100
AcDbEntity
  8
1
  6
ByLayer
 62
  256
370
   -1
100
AcDbLine
 10
-4.089994680879709
 20
-19.02873097335065
 11
-4.782815003907238
 21
-19.02873107735024
  0
LINE
  5
151
100
AcDbEntity
  8
1
  6
ByLayer
 62
  256
370
   -1
100
AcDbLine
 10
-0.9756355968449193
 20
-17.23065429449936
 11
-0.6292255253974565
 21
-16.63065424249956
  0
LINE
  5
152
100
AcDbEntity
  8
1
  6
ByLayer
 62
  256
370
   -1
100
AcDbLine
 10
-0.9756357769775038
 20
-16.03065429449937
 11
-0.6292255253974565
 21
-16.63065424249956
  0
LINE
  5
153
100
AcDbEntity
  8
1
  6
ByLayer
 62
  256
370
   -1
100
AcDbLine
 10
-11.98598376631051
 20
-21.96033661638912
 11
-12.33239391281321
 21
-22.56033669438882
  0
LINE
  5
154
100
AcDbEntity
  8
1
  6
ByLayer
 62
  256
370
   -1
100
AcDbLine
 10
-12.10145384516684
 20
-21.76033664238902
 11
-11.98598376631051
 21
-21.96033661638912
  0
LINE
  5
155
100
AcDbEntity
  8
1
  6
ByLayer
 62
  256
370
   -1
100
AcDbLine
 10
-9.169916816078299
 20
-16.68276468362916
 11
-12.10145384516684
 21
-21.76033664238902
  0
LINE
  5
156
100
AcDbEntity
  8
1
  6
ByLayer
 62
  256
370
   -1
100
AcDbLine
 10
-9.169916816078299
 20
-16.68276468362916
 11
-7.420471681148901
 21
-19.71289149194111
  0
LINE
  5
157
100
AcDbEntity
  8
1
  6
ByLayer
 62
  256
370
   -1
100
AcDbLine
 10
-7.535941704964721
 20
-19.91289150927438
 11
-7.189531453384652
 21
-20.51289145727458
  0
LINE
  5
158
100
AcDbEntity
  8
1
  6
ByLayer
 62
  256
370
   -1
100
AcDbLine
 10
-7.420471681148901
 20
-19.71289149194111
 11
-7.535941704964721
 21
-19.91289150927438
  0
LINE
  5
159
100
AcDbEntity
  8
1
  6
ByLayer
 62
  256
370
   -1
100
AcDbLine
 10
-6.496711310489695
 20
-19.31289135327499
 11
-6.150301058909623
 21
-19.91289130127519
  0
LINE
  5
15A
100
AcDbEntity
  8
1
  6
ByLayer
 62
  256
370
   -1
100
AcDbLine
 10
-6.727651418165557
 20
-19.31289138794152
 11
-6.496711310489695
 21
-19.31289135327499
  0
LINE
  5
15B
100
AcDbEntity
  8
1
  6
ByLayer
 62
  256
370
   -1
100
AcDbLine
 10
-8.708036680785527
 20
-15.88276468362915
 11
-6.727651418165557
 21
-19.31289138794152
  0
LINE
  5
15C
100
AcDbEntity
  8
1
  6
ByLayer
 62
  256
370
   -1
100
AcDbLine
 10
-3.860165633073264
 20
-16.63065472749756
 11
-4.551875076363982
 21
-17.82873104268373
  0
LINE
  5
15D
100
AcDbEntity
  8
1
  6
ByLayer
 62
  256
370
   -1
100
AcDbLine
 10
-4.551875076363982
 20
-17.82873104268373
 11
-4.782815184039829
 21
-17.82873107735026
  0
LINE
  5
15E
100
AcDbEntity
  8
1
  6
ByLayer
 62
  256
370
   -1
100
AcDbLine
 10
-4.782815184039829
 20
-17.82873107735026
 11
-5.129225255487297
 21
-18.42873112935005
  0
LINE
  5
15F
100
AcDbEntity
  8
1
  6
ByLayer
 62
  256
370
   -1
100
AcDbLine
 10
-3.859054693292248
 20
-18.22873093868412
 11
-3.743584609432222
 21
-18.42873092135086
  0
LINE
  5
160
100
AcDbEntity
  8
1
  6
ByLayer
 62
  256
370
   -1
100
AcDbLine
 10
-3.743584609432222
 20
-18.42873092135086
 11
-4.089994680879709
 21
-19.02873097335065
  0
LINE
  5
161
100
AcDbEntity
  8
1
  6
ByLayer
 62
  256
370
   -1
100
AcDbLine
 10
-3.398285297633178
 20
-17.43065465816448
 11
-3.859054693292248
 21
-18.22873093868412
  0
LINE
  5
162
100
AcDbEntity
  8
1
  6
ByLayer
 62
  256
370
   -1
100
AcDbLine
 10
-2.70546503464983
 20
-17.03065455416489
 11
-1.783926003732487
 21
-17.03065441583222
  0
LINE
  5
163
100
AcDbEntity
  8
1
  6
ByLayer
 62
  256
370
   -1
100
AcDbLine
 10
-1.668455919872474
 20
-17.23065439849895
 11
-0.9756355968449193
 21
-17.23065429449936
  0
LINE
  5
164
100
AcDbEntity
  8
1
  6
ByLayer
 62
  256
370
   -1
100
AcDbLine
 10
-1.783926003732487
 20
-17.03065441583222
 11
-1.668455919872474
 21
-17.23065439849895
  0
LINE
  5
165
100
AcDbEntity
  8
1
  6
ByLayer
 62
  256
370
   -1
100
AcDbLine
 10
-1.668456100005053
 20
-16.03065439849896
 11
-0.9756357769775038
 21
-16.03065429449937
  0
LINE
  5
166
100
AcDbEntity
  8
1
  6
ByLayer
 62
  256
370
   -1
100
AcDbLine
 10
-1.783926123820887
 20
-16.23065441583222
 11
-1.668456100005053
 21
-16.03065439849896
  0
LINE
  5
167
100
AcDbEntity
  8
1
  6
ByLayer
 62
  256
370
   -1
100
AcDbLine
 10
-3.167345370089923
 20
-16.23065462349796
 11
-1.783926123820887
 21
-16.23065441583222
  0
LINE
  5
168
100
AcDbEntity
  8
1
  6
ByLayer
 62
  256
370
   -1
100
AcDbLine
 10
-1.982450434201657
 20
-10.29396080164773
 11
-1.63604018262159
 21
-10.89396074964793
  0
LINE
  5
169
100
AcDbEntity
  8
1
  6
ByLayer
 62
  256
370
   -1
100
AcDbLine
 10
-1.866980410385835
 20
-10.09396078431447
 11
-1.982450434201657
 21
-10.29396080164773
  0
LINE
  5
16A
100
AcDbEntity
  8
1
  6
ByLayer
 62
  256
370
   -1
100
AcDbLine
 10
-0.9432200397266346
 20
-9.693960645648351
 11
-0.5968097881465704
 21
-10.29396059364854
  0
LINE
  5
16B
100
AcDbEntity
  8
1
  6
ByLayer
 62
  256
370
   -1
100
AcDbLine
 10
-1.17416014740248
 20
-9.693960680314881
 11
-0.9432200397266346
 21
-9.693960645648351
  0
LINE
  5
16C
100
AcDbEntity
  8
1
  6
ByLayer
 62
  256
370
   -1
100
AcDbLine
 10
-6.620750958796394
 20
-12.26747913658386
 11
-8.708036680785527
 21
-15.88276468362915
  0
LINE
  5
16D
100
AcDbEntity
  8
1
  6
ByLayer
 62
  256
370
   -1
100
AcDbLine
 10
-3.860165633073264
 20
-16.63065472749756
 11
-6.620750958796394
 21
-12.26747913658386
  0
LINE
  5
16E
100
AcDbEntity
  8
1
  6
ByLayer
 62
  256
370
   -1
100
AcDbLine
 10
-3.167345370089923
 20
-16.23065462349796
 11
-5.917809743254153
 21
-11.04994902549277
  0
LINE
  5
16F
100
AcDbEntity
  8
1
  6
ByLayer
 62
  256
370
   -1
100
AcDbLine
 10
-3.740055638780436
 20
-7.277967616345081
 11
-1.866980410385835
 21
-10.09396078431447
  0
LINE
  5
170
100
AcDbEntity
  8
1
  6
ByLayer
 62
  256
370
   -1
100
AcDbLine
 10
-3.740055638780436
 20
-7.277967616345081
 11
-5.917809743254153
 21
-11.04994902549277
  0
LINE
  5
171
100
AcDbEntity
  8
1
  6
ByLayer
 62
  256
370
   -1
100
AcDbLine
 10
-1.17416014740248
 20
-9.693960680314881
 11
-3.028200960849913
 21
-6.058753852874519
  0
LINE
  5
172
100
AcDbEntity
  8
1
  6
ByLayer
 62
  256
370
   -1
100
AcDbLine
 10
-12.33239391281321
 20
-22.56033669438882
 11
-13.02521423584078
 21
-22.56033674638861
  0
LINE
  5
173
100
AcDbEntity
  8
1
  6
ByLayer
 62
  256
370
   -1
100
AcDbLine
 10
-13.37162444238769
 20
-21.96033677238852
 11
-13.02521423584078
 21
-22.56033674638861
  0
LINE
  5
174
100
AcDbEntity
  8
1
  6
ByLayer
 62
  256
370
   -1
100
AcDbLine
 10
-17.31041822106983
 20
-11.85833073705676
 11
-17.6568283825836
 21
-11.25833073705676
  0
LINE
  5
175
100
AcDbEntity
  8
1
  6
ByLayer
 62
  256
370
   -1
100
AcDbLine
 10
-17.31041822106982
 20
-10.65833073705676
 11
-17.6568283825836
 21
-11.25833073705676
  0
LINE
  5
176
100
AcDbEntity
  8
1
  6
ByLayer
 62
  256
370
   -1
100
AcDbLine
 10
-16.61759789804227
 20
-11.85833073705676
 11
-17.31041822106983
 21
-11.85833073705676
  0
LINE
  5
177
100
AcDbEntity
  8
1
  6
ByLayer
 62
  256
370
   -1
100
AcDbLine
 10
-16.61759789804227
 20
-10.65833073705676
 11
-17.31041822106982
 21
-10.65833073705676
  0
LINE
  5
178
100
AcDbEntity
  8
1
  6
ByLayer
 62
  256
370
   -1
100
AcDbLine
 10
-1.614403413858561
 20
-20.92042754044699
 11
-0.9215830908310116
 21
-20.9204274364474
  0
LINE
  5
179
100
AcDbEntity
  8
1
  6
ByLayer
 62
  256
370
   -1
100
AcDbLine
 10
-0.5751730193835403
 20
-20.32042738444761
 11
-0.9215830908310116
 21
-20.9204274364474
  0
LINE
  5
17A
100
AcDbEntity
  8
1
  6
ByLayer
 62
  256
370
   -1
100
AcDbLine
 10
-1.960813665438639
 20
-20.3204275924468
 11
-1.614403413858561
 21
-20.92042754044699
  0
LINE
  5
17B
100
AcDbEntity
  8
1
  6
ByLayer
 62
  256
370
   -1
100
AcDbLine
 10
-0.9215832709636068
 20
-19.72042743644742
 11
-0.5751730193835403
 21
-20.32042738444761
  0
LINE
  5
17C
100
AcDbEntity
  8
1
  6
ByLayer
 62
  256
370
   -1
100
AcDbLine
 10
-3.398285297633178
 20
-17.43065465816448
 11
-1.845343641622809
 21
-20.12042757511354
  0
LINE
  5
17D
100
AcDbEntity
  8
1
  6
ByLayer
 62
  256
370
   -1
100
AcDbLine
 10
-1.845343641622809
 20
-20.12042757511354
 11
-1.960813665438639
 21
-20.3204275924468
  0
LINE
  5
17E
100
AcDbEntity
  8
1
  6
ByLayer
 62
  256
370
   -1
100
AcDbLine
 10
-2.70546503464983
 20
-17.03065455416489
 11
-1.15252337863946
 21
-19.72042747111395
  0
LINE
  5
17F
100
AcDbEntity
  8
1
  6
ByLayer
 62
  256
370
   -1
100
AcDbLine
 10
-1.15252337863946
 20
-19.72042747111395
 11
-0.9215832709636068
 21
-19.72042743644742
  0
LINE
  5
180
100
AcDbEntity
  8
1
  6
ByLayer
 62
  256
370
   -1
100
AcDbLine
 10
-13.39624533970987
 20
-11.65833073705676
 11
-16.50212784420434
 21
-11.65833073705676
  0
LINE
  5
181
100
AcDbEntity
  8
1
  6
ByLayer
 62
  256
370
   -1
100
AcDbLine
 10
-16.50212784420434
 20
-11.65833073705676
 11
-16.61759789804227
 21
-11.85833073705676
  0
LINE
  5
182
100
AcDbEntity
  8
1
  6
ByLayer
 62
  256
370
   -1
100
AcDbLine
 10
-13.39624533970988
 20
-10.85833073705677
 11
-16.50212784420434
 21
-10.85833073705677
  0
LINE
  5
183
100
AcDbEntity
  8
1
  6
ByLayer
 62
  256
370
   -1
100
AcDbLine
 10
-16.50212784420434
 20
-10.85833073705677
 11
-16.61759789804227
 21
-10.65833073705676
  0
LINE
  5
184
100
AcDbEntity
  8
1
  6
ByLayer
 62
  256
370
   -1
100
AcDbLine
 10
1.636041817919309
 20
-10.89396050406102
 11
0.9432214948917644
 21
-10.89396050406102
  0
LINE
  5
185
100
AcDbEntity
  8
1
  6
ByLayer
 62
  256
370
   -1
100
AcDbLine
 10
0.5968113333779858
 20
-10.29396050406102
 11
0.9432214948917644
 21
-10.89396050406102
  0
LINE
  5
186
100
AcDbEntity
  8
1
  6
ByLayer
 62
  256
370
   -1
100
AcDbLine
 10
7.189534532584684
 20
-20.51289037805029
 11
6.496714209557136
 21
-20.51289037805028
  0
LINE
  5
187
100
AcDbEntity
  8
1
  6
ByLayer
 62
  256
370
   -1
100
AcDbLine
 10
6.150304048043352
 20
-19.91289037805028
 11
6.496714209557136
 21
-20.51289037805028
  0
LINE
  5
188
100
AcDbEntity
  8
1
  6
ByLayer
 62
  256
370
   -1
100
AcDbLine
 10
5.129228021833031
 20
-18.42873035939935
 11
4.782817860319262
 21
-19.02873035939935
  0
LINE
  5
189
100
AcDbEntity
  8
1
  6
ByLayer
 62
  256
370
   -1
100
AcDbLine
 10
4.089997537291707
 20
-19.02873035939935
 11
4.782817860319262
 21
-19.02873035939935
  0
LINE
  5
18A
100
AcDbEntity
  8
1
  6
ByLayer
 62
  256
370
   -1
100
AcDbLine
 10
0.9756381833468046
 20
-17.23065414804603
 11
0.6292280218330312
 21
-16.63065414804603
  0
LINE
  5
18B
100
AcDbEntity
  8
1
  6
ByLayer
 62
  256
370
   -1
100
AcDbLine
 10
0.9756381833468055
 20
-16.03065414804603
 11
0.6292280218330312
 21
-16.63065414804603
  0
LINE
  5
18C
100
AcDbEntity
  8
1
  6
ByLayer
 62
  256
370
   -1
100
AcDbLine
 10
11.98598706278716
 20
-21.96033481716703
 11
12.33239729935619
 21
-22.56033484316692
  0
LINE
  5
18D
100
AcDbEntity
  8
1
  6
ByLayer
 62
  256
370
   -1
100
AcDbLine
 10
12.1014571116214
 20
-21.76033482583367
 11
11.98598706278716
 21
-21.96033481716703
  0
LINE
  5
18E
100
AcDbEntity
  8
1
  6
ByLayer
 62
  256
370
   -1
100
AcDbLine
 10
9.169919320336115
 20
-16.6827633071283
 11
12.1014571116214
 21
-21.76033482583367
  0
LINE
  5
18F
100
AcDbEntity
  8
1
  6
ByLayer
 62
  256
370
   -1
100
AcDbLine
 10
9.169919320336115
 20
-16.6827633071283
 11
7.420474640260529
 21
-19.71289037805028
  0
LINE
  5
190
100
AcDbEntity
  8
1
  6
ByLayer
 62
  256
370
   -1
100
AcDbLine
 10
7.535944694098448
 20
-19.91289037805029
 11
7.189534532584684
 21
-20.51289037805029
  0
LINE
  5
191
100
AcDbEntity
  8
1
  6
ByLayer
 62
  256
370
   -1
100
AcDbLine
 10
7.420474640260529
 20
-19.71289037805028
 11
7.535944694098448
 21
-19.91289037805029
  0
LINE
  5
192
100
AcDbEntity
  8
1
  6
ByLayer
 62
  256
370
   -1
100
AcDbLine
 10
6.496714209557119
 20
-19.31289037805029
 11
6.150304048043352
 21
-19.91289037805028
  0
LINE
  5
193
100
AcDbEntity
  8
1
  6
ByLayer
 62
  256
370
   -1
100
AcDbLine
 10
6.727654317232982
 20
-19.31289037805028
 11
6.496714209557119
 21
-19.31289037805029
  0
LINE
  5
194
100
AcDbEntity
  8
1
  6
ByLayer
 62
  256
370
   -1
100
AcDbLine
 10
8.708039064954946
 20
-15.88276337646136
 11
6.727654317232982
 21
-19.31289037805028
  0
LINE
  5
195
100
AcDbEntity
  8
1
  6
ByLayer
 62
  256
370
   -1
100
AcDbLine
 10
3.860168129508875
 20
-16.63065414804603
 11
4.551877752643402
 21
-17.82873035939935
  0
LINE
  5
196
100
AcDbEntity
  8
1
  6
ByLayer
 62
  256
370
   -1
100
AcDbLine
 10
4.551877752643402
 20
-17.82873035939935
 11
4.782817860319253
 21
-17.82873035939935
  0
LINE
  5
197
100
AcDbEntity
  8
1
  6
ByLayer
 62
  256
370
   -1
100
AcDbLine
 10
4.782817860319253
 20
-17.82873035939935
 11
5.129228021833031
 21
-18.42873035939935
  0
LINE
  5
198
100
AcDbEntity
  8
1
  6
ByLayer
 62
  256
370
   -1
100
AcDbLine
 10
3.859057429615854
 20
-18.22873035939934
 11
3.743587375777924
 21
-18.42873035939935
  0
LINE
  5
199
100
AcDbEntity
  8
1
  6
ByLayer
 62
  256
370
   -1
100
AcDbLine
 10
3.743587375777924
 20
-18.42873035939935
 11
4.089997537291707
 21
-19.02873035939935
  0
LINE
  5
19A
100
AcDbEntity
  8
1
  6
ByLayer
 62
  256
370
   -1
100
AcDbLine
 10
3.398287914157173
 20
-17.43065414804603
 11
3.859057429615854
 21
-18.22873035939934
  0
LINE
  5
19B
100
AcDbEntity
  8
1
  6
ByLayer
 62
  256
370
   -1
100
AcDbLine
 10
2.705467591129624
 20
-17.03065414804603
 11
1.783928560212283
 21
-17.03065414804603
  0
LINE
  5
19C
100
AcDbEntity
  8
1
  6
ByLayer
 62
  256
370
   -1
100
AcDbLine
 10
1.668458506374352
 20
-17.23065414804603
 11
0.9756381833468046
 21
-17.23065414804603
  0
LINE
  5
19D
100
AcDbEntity
  8
1
  6
ByLayer
 62
  256
370
   -1
100
AcDbLine
 10
1.783928560212283
 20
-17.03065414804603
 11
1.668458506374352
 21
-17.23065414804603
  0
LINE
  5
19E
100
AcDbEntity
  8
1
  6
ByLayer
 62
  256
370
   -1
100
AcDbLine
 10
1.668458506374349
 20
-16.03065414804603
 11
0.9756381833468055
 21
-16.03065414804603
  0
LINE
  5
19F
100
AcDbEntity
  8
1
  6
ByLayer
 62
  256
370
   -1
100
AcDbLine
 10
1.783928560212281
 20
-16.23065414804602
 11
1.668458506374349
 21
-16.03065414804603
  0
LINE
  5
1A0
100
AcDbEntity
  8
1
  6
ByLayer
 62
  256
370
   -1
100
AcDbLine
 10
3.167347806481332
 20
-16.23065414804603
 11
1.783928560212281
 21
-16.23065414804602
  0
LINE
  5
1A1
100
AcDbEntity
  8
1
  6
ByLayer
 62
  256
370
   -1
100
AcDbLine
 10
1.982451979433089
 20
-10.29396050406102
 11
1.636041817919309
 21
-10.89396050406102
  0
LINE
  5
1A2
100
AcDbEntity
  8
1
  6
ByLayer
 62
  256
370
   -1
100
AcDbLine
 10
1.866981925595167
 20
-10.09396050406102
 11
1.982451979433089
 21
-10.29396050406102
  0
LINE
  5
1A3
100
AcDbEntity
  8
1
  6
ByLayer
 62
  256
370
   -1
100
AcDbLine
 10
0.9432214948917622
 20
-9.693960504061023
 11
0.5968113333779858
 21
-10.29396050406102
  0
LINE
  5
1A4
100
AcDbEntity
  8
1
  6
ByLayer
 62
  256
370
   -1
100
AcDbLine
 10
1.174161602567611
 20
-9.693960504061025
 11
0.9432214948917622
 21
-9.693960504061023
  0
LINE
  5
1A5
100
AcDbEntity
  8
1
  6
ByLayer
 62
  256
370
   -1
100
AcDbLine
 10
6.620752800273578
 20
-12.26747814273958
 11
8.708039064954946
 21
-15.88276337646136
  0
LINE
  5
1A6
100
AcDbEntity
  8
1
  6
ByLayer
 62
  256
370
   -1
100
AcDbLine
 10
3.860168129508875
 20
-16.63065414804603
 11
6.620752800273578
 21
-12.26747814273958
  0
LINE
  5
1A7
100
AcDbEntity
  8
1
  6
ByLayer
 62
  256
370
   -1
100
AcDbLine
 10
3.167347806481332
 20
-16.23065414804603
 11
5.917811401967308
 21
-11.04994813716734
  0
LINE
  5
1A8
100
AcDbEntity
  8
1
  6
ByLayer
 62
  256
370
   -1
100
AcDbLine
 10
3.740056731279644
 20
-7.277967054923429
 11
1.866981925595167
 21
-10.09396050406102
  0
LINE
  5
1A9
100
AcDbEntity
  8
1
  6
ByLayer
 62
  256
370
   -1
100
AcDbLine
 10
3.740056731279644
 20
-7.277967054923429
 11
5.917811401967308
 21
-11.04994813716734
  0
LINE
  5
1AA
100
AcDbEntity
  8
1
  6
ByLayer
 62
  256
370
   -1
100
AcDbLine
 10
1.174161602567611
 20
-9.693960504061025
 11
3.028201870332361
 21
-6.058753398309735
  0
LINE
  5
1AB
100
AcDbEntity
  8
1
  6
ByLayer
 62
  256
370
   -1
100
AcDbLine
 10
8.616426665714883
 20
-6.863832734586389
 11
8.962836737162359
 21
-6.263832682586603
  0
LINE
  5
1AC
100
AcDbEntity
  8
1
  6
ByLayer
 62
  256
370
   -1
100
AcDbLine
 10
8.616426485582293
 20
-5.663832734586404
 11
8.962836737162359
 21
-6.263832682586603
  0
LINE
  5
1AD
100
AcDbEntity
  8
1
  6
ByLayer
 62
  256
370
   -1
100
AcDbLine
 10
14.16991938038025
 20
-16.48276260857566
 11
14.51632945182773
 21
-15.88276255657587
  0
LINE
  5
1AE
100
AcDbEntity
  8
1
  6
ByLayer
 62
  256
370
   -1
100
AcDbLine
 10
14.16991920024766
 20
-15.28276260857567
 11
14.51632945182773
 21
-15.88276255657587
  0
LINE
  5
1AF
100
AcDbEntity
  8
1
  6
ByLayer
 62
  256
370
   -1
100
AcDbLine
 10
13.39513668978658
 20
-13.65640493765976
 11
14.08795701281412
 21
-13.65640483366017
  0
LINE
  5
1B0
100
AcDbEntity
  8
1
  6
ByLayer
 62
  256
370
   -1
100
AcDbLine
 10
14.4343670842616
 20
-13.05640478166037
 11
14.08795701281412
 21
-13.65640483366017
  0
LINE
  5
1B1
100
AcDbEntity
  8
1
  6
ByLayer
 62
  256
370
   -1
100
AcDbLine
 10
14.43436654444141
 20
-9.460252358953776
 11
14.08795629286135
 21
-8.860252410953581
  0
LINE
  5
1B2
100
AcDbEntity
  8
1
  6
ByLayer
 62
  256
370
   -1
100
AcDbLine
 10
13.39513596983381
 20
-8.860252514953176
 11
14.08795629286135
 21
-8.860252410953581
  0
LINE
  5
1B3
100
AcDbEntity
  8
1
  6
ByLayer
 62
  256
370
   -1
100
AcDbLine
 10
13.02521750229534
 20
-21.36033473916734
 11
13.37162773886435
 21
-21.96033476516723
  0
LINE
  5
1B4
100
AcDbEntity
  8
1
  6
ByLayer
 62
  256
370
   -1
100
AcDbLine
 10
12.79427740462686
 20
-21.36033477383386
 11
13.02521750229534
 21
-21.36033473916734
  0
LINE
  5
1B5
100
AcDbEntity
  8
1
  6
ByLayer
 62
  256
370
   -1
100
AcDbLine
 10
9.862739613341564
 20
-16.28276325512851
 11
12.79427740462686
 21
-21.36033477383386
  0
LINE
  5
1B6
100
AcDbEntity
  8
1
  6
ByLayer
 62
  256
370
   -1
100
AcDbLine
 10
9.862739613341564
 20
-16.28276325512851
 11
13.36162897349268
 21
-16.28276272990852
  0
LINE
  5
1B7
100
AcDbEntity
  8
1
  6
ByLayer
 62
  256
370
   -1
100
AcDbLine
 10
13.47709905735272
 20
-16.48276271257524
 11
14.16991938038025
 21
-16.48276260857566
  0
LINE
  5
1B8
100
AcDbEntity
  8
1
  6
ByLayer
 62
  256
370
   -1
100
AcDbLine
 10
13.36162897349268
 20
-16.28276272990852
 11
13.47709905735272
 21
-16.48276271257524
  0
LINE
  5
1B9
100
AcDbEntity
  8
1
  6
ByLayer
 62
  256
370
   -1
100
AcDbLine
 10
13.47709887722013
 20
-15.28276271257526
 11
14.16991920024766
 21
-15.28276260857567
  0
LINE
  5
1BA
100
AcDbEntity
  8
1
  6
ByLayer
 62
  256
370
   -1
100
AcDbLine
 10
13.36162885340429
 20
-15.48276272990853
 11
13.47709887722013
 21
-15.28276271257526
  0
LINE
  5
1BB
100
AcDbEntity
  8
1
  6
ByLayer
 62
  256
370
   -1
100
AcDbLine
 10
9.400859357960403
 20
-15.48276332446156
 11
13.36162885340429
 21
-15.48276272990853
  0
LINE
  5
1BC
100
AcDbEntity
  8
1
  6
ByLayer
 62
  256
370
   -1
100
AcDbLine
 10
12.47248665904403
 20
-11.65832886480586
 11
13.16419646202235
 21
-12.8564049723263
  0
LINE
  5
1BD
100
AcDbEntity
  8
1
  6
ByLayer
 62
  256
370
   -1
100
AcDbLine
 10
13.16419646202235
 20
-12.8564049723263
 11
13.04872643820652
 21
-13.05640498965956
  0
LINE
  5
1BE
100
AcDbEntity
  8
1
  6
ByLayer
 62
  256
370
   -1
100
AcDbLine
 10
13.04872643820652
 20
-13.05640498965956
 11
13.39513668978658
 21
-13.65640493765976
  0
LINE
  5
1BF
100
AcDbEntity
  8
1
  6
ByLayer
 62
  256
370
   -1
100
AcDbLine
 10
13.85701672500569
 20
-12.45640486832671
 11
14.08795683268155
 21
-12.45640483366017
  0
LINE
  5
1C0
100
AcDbEntity
  8
1
  6
ByLayer
 62
  256
370
   -1
100
AcDbLine
 10
14.08795683268155
 20
-12.45640483366017
 11
14.4343670842616
 21
-13.05640478166037
  0
LINE
  5
1C1
100
AcDbEntity
  8
1
  6
ByLayer
 62
  256
370
   -1
100
AcDbLine
 10
13.39624708974742
 20
-11.65832872613973
 11
13.85701672500569
 21
-12.45640486832671
  0
LINE
  5
1C2
100
AcDbEntity
  8
1
  6
ByLayer
 62
  256
370
   -1
100
AcDbLine
 10
13.39624696965903
 20
-10.85832872613974
 11
13.85701636531809
 21
-10.0602524456201
  0
LINE
  5
1C3
100
AcDbEntity
  8
1
  6
ByLayer
 62
  256
370
   -1
100
AcDbLine
 10
14.08795647299394
 20
-10.06025241095356
 11
14.43436654444141
 21
-9.460252358953776
  0
LINE
  5
1C4
100
AcDbEntity
  8
1
  6
ByLayer
 62
  256
370
   -1
100
AcDbLine
 10
13.85701636531809
 20
-10.0602524456201
 11
14.08795647299394
 21
-10.06025241095356
  0
LINE
  5
1C5
100
AcDbEntity
  8
1
  6
ByLayer
 62
  256
370
   -1
100
AcDbLine
 10
13.04872589838632
 20
-9.460252566952972
 11
13.39513596983381
 21
-8.860252514953176
  0
LINE
  5
1C6
100
AcDbEntity
  8
1
  6
ByLayer
 62
  256
370
   -1
100
AcDbLine
 10
13.16419598224635
 20
-9.660252549619697
 11
13.04872589838632
 21
-9.460252566952972
  0
LINE
  5
1C7
100
AcDbEntity
  8
1
  6
ByLayer
 62
  256
370
   -1
100
AcDbLine
 10
12.47248653895563
 20
-10.85832886480587
 11
13.16419598224635
 21
-9.660252549619697
  0
LINE
  5
1C8
100
AcDbEntity
  8
1
  6
ByLayer
 62
  256
370
   -1
100
AcDbLine
 10
7.923606342687328
 20
-6.863832838585994
 11
8.616426665714883
 21
-6.863832734586389
  0
LINE
  5
1C9
100
AcDbEntity
  8
1
  6
ByLayer
 62
  256
370
   -1
100
AcDbLine
 10
7.808136258827314
 20
-6.66383285591926
 11
7.923606342687328
 21
-6.863832838585994
  0
LINE
  5
1CA
100
AcDbEntity
  8
1
  6
ByLayer
 62
  256
370
   -1
100
AcDbLine
 10
7.923606162554758
 20
-5.663832838586004
 11
8.616426485582293
 21
-5.663832734586404
  0
LINE
  5
1CB
100
AcDbEntity
  8
1
  6
ByLayer
 62
  256
370
   -1
100
AcDbLine
 10
7.80813613873893
 20
-5.863832855919266
 11
7.923606162554758
 21
-5.663832838586004
  0
LINE
  5
1CC
100
AcDbEntity
  8
1
  6
ByLayer
 62
  256
370
   -1
100
AcDbLine
 10
7.313573093279014
 20
-11.86747809073979
 11
9.400859357960403
 21
-15.48276332446156
  0
LINE
  5
1CD
100
AcDbEntity
  8
1
  6
ByLayer
 62
  256
370
   -1
100
AcDbLine
 10
12.47248665904403
 20
-11.65832886480586
 11
7.313573093279014
 21
-11.86747809073979
  0
LINE
  5
1CE
100
AcDbEntity
  8
1
  6
ByLayer
 62
  256
370
   -1
100
AcDbLine
 10
12.47248653895563
 20
-10.85832886480587
 11
6.610631694972759
 21
-10.64994808516755
  0
LINE
  5
1CF
100
AcDbEntity
  8
1
  6
ByLayer
 62
  256
370
   -1
100
AcDbLine
 10
4.432877024285103
 20
-6.877967002923632
 11
7.808136258827314
 21
-6.66383285591926
  0
LINE
  5
1D0
100
AcDbEntity
  8
1
  6
ByLayer
 62
  256
370
   -1
100
AcDbLine
 10
4.432877024285103
 20
-6.877967002923632
 11
6.610631694972759
 21
-10.64994808516755
  0
LINE
  5
1D1
100
AcDbEntity
  8
1
  6
ByLayer
 62
  256
370
   -1
100
AcDbLine
 10
7.80813613873893
 20
-5.863832855919266
 11
3.732934271441225
 21
-5.651875886297727
  0
LINE
  5
1D2
100
AcDbEntity
  8
1
  6
ByLayer
 62
  256
370
   -1
100
AcDbLine
 10
13.37162773886435
 20
-21.96033476516723
 11
13.02521762238373
 21
-22.56033479116713
  0
LINE
  5
1D3
100
AcDbEntity
  8
1
  6
ByLayer
 62
  256
370
   -1
100
AcDbLine
 10
12.33239729935619
 20
-22.56033484316692
 11
13.02521762238373
 21
-22.56033479116713
  0
LINE
  5
1D4
100
AcDbEntity
  8
1
  6
ByLayer
 62
  256
370
   -1
100
AcDbLine
 10
1.614406554234096
 20
-20.92042729810788
 11
0.921586231206538
 21
-20.92042729810788
  0
LINE
  5
1D5
100
AcDbEntity
  8
1
  6
ByLayer
 62
  256
370
   -1
100
AcDbLine
 10
0.5751760696927528
 20
-20.32042729810788
 11
0.921586231206538
 21
-20.92042729810788
  0
LINE
  5
1D6
100
AcDbEntity
  8
1
  6
ByLayer
 62
  256
370
   -1
100
AcDbLine
 10
1.960816715747866
 20
-20.32042729810788
 11
1.614406554234096
 21
-20.92042729810788
  0
LINE
  5
1D7
100
AcDbEntity
  8
1
  6
ByLayer
 62
  256
370
   -1
100
AcDbLine
 10
0.9215862312065323
 20
-19.72042729810788
 11
0.5751760696927528
 21
-20.32042729810788
  0
LINE
  5
1D8
100
AcDbEntity
  8
1
  6
ByLayer
 62
  256
370
   -1
100
AcDbLine
 10
17.31042000112942
 20
-11.85832813858132
 11
17.6568300725769
 21
-11.25832808658155
  0
LINE
  5
1D9
100
AcDbEntity
  8
1
  6
ByLayer
 62
  256
370
   -1
100
AcDbLine
 10
17.31041982099684
 20
-10.65832813858136
 11
17.6568300725769
 21
-11.25832808658155
  0
LINE
  5
1DA
100
AcDbEntity
  8
1
  6
ByLayer
 62
  256
370
   -1
100
AcDbLine
 10
16.61759967810188
 20
-11.85832824258094
 11
17.31042000112942
 21
-11.85832813858132
  0
LINE
  5
1DB
100
AcDbEntity
  8
1
  6
ByLayer
 62
  256
370
   -1
100
AcDbLine
 10
16.6175994979693
 20
-10.65832824258094
 11
17.31041982099684
 21
-10.65832813858136
  0
LINE
  5
1DC
100
AcDbEntity
  8
1
  6
ByLayer
 62
  256
370
   -1
100
AcDbLine
 10
13.39624708974742
 20
-11.65832872613973
 11
16.50212959424186
 21
-11.6583282599142
  0
LINE
  5
1DD
100
AcDbEntity
  8
1
  6
ByLayer
 62
  256
370
   -1
100
AcDbLine
 10
16.50212959424186
 20
-11.6583282599142
 11
16.61759967810188
 21
-11.85832824258094
  0
LINE
  5
1DE
100
AcDbEntity
  8
1
  6
ByLayer
 62
  256
370
   -1
100
AcDbLine
 10
13.39624696965903
 20
-10.85832872613974
 11
16.50212947415347
 21
-10.85832825991421
  0
LINE
  5
1DF
100
AcDbEntity
  8
1
  6
ByLayer
 62
  256
370
   -1
100
AcDbLine
 10
16.50212947415347
 20
-10.85832825991421
 11
16.6175994979693
 21
-10.65832824258094
  0
LINE
  5
1E0
100
AcDbEntity
  8
1
  6
ByLayer
 62
  256
370
   -1
100
AcDbLine
 10
3.398287914157173
 20
-17.43065414804603
 11
1.845346661909938
 21
-20.12042729810788
  0
LINE
  5
1E1
100
AcDbEntity
  8
1
  6
ByLayer
 62
  256
370
   -1
100
AcDbLine
 10
1.845346661909938
 20
-20.12042729810788
 11
1.960816715747866
 21
-20.32042729810788
  0
LINE
  5
1E2
100
AcDbEntity
  8
1
  6
ByLayer
 62
  256
370
   -1
100
AcDbLine
 10
2.705467591129624
 20
-17.03065414804603
 11
1.152526338882388
 21
-19.72042729810788
  0
LINE
  5
1E3
100
AcDbEntity
  8
1
  6
ByLayer
 62
  256
370
   -1
100
AcDbLine
 10
1.152526338882388
 20
-19.72042729810788
 11
0.9215862312065323
 21
-19.72042729810788
  0
LINE
  5
1E4
100
AcDbEntity
  8
1
  6
ByLayer
 62
  256
370
   -1
100
AcDbLine
 10
10.25246745330083
 20
-4.030126476058718
 11
9.906057291787056
 21
-4.630126476058712
  0
LINE
  5
1E5
100
AcDbEntity
  8
1
  6
ByLayer
 62
  256
370
   -1
100
AcDbLine
 10
9.213236968759499
 20
-4.630126476058713
 11
9.906057291787056
 21
-4.630126476058712
  0
LINE
  5
1E6
100
AcDbEntity
  8
1
  6
ByLayer
 62
  256
370
   -1
100
AcDbLine
 10
21.35945143872927
 20
-4.030125642421334
 11
21.01304127721549
 21
-4.63012564242133
  0
LINE
  5
1E7
100
AcDbEntity
  8
1
  6
ByLayer
 62
  256
370
   -1
100
AcDbLine
 10
20.32022095418793
 20
-4.630125642421337
 11
21.01304127721549
 21
-4.63012564242133
  0
LINE
  5
1E8
100
AcDbEntity
  8
1
  6
ByLayer
 62
  256
370
   -1
100
AcDbLine
 10
18.52436266164987
 20
-4.77232341098927
 11
18.87077282316365
 21
-5.372323410989282
  0
LINE
  5
1E9
100
AcDbEntity
  8
1
  6
ByLayer
 62
  256
370
   -1
100
AcDbLine
 10
18.52436266164987
 20
-5.972323410989269
 11
18.87077282316365
 21
-5.372323410989282
  0
LINE
  5
1EA
100
AcDbEntity
  8
1
  6
ByLayer
 62
  256
370
   -1
100
AcDbLine
 10
15.41000330770498
 20
-7.770399622342588
 11
14.71718298467743
 21
-7.770399622342586
  0
LINE
  5
1EB
100
AcDbEntity
  8
1
  6
ByLayer
 62
  256
370
   -1
100
AcDbLine
 10
14.37077282316365
 20
-7.170399622342586
 11
14.71718298467743
 21
-7.770399622342586
  0
LINE
  5
1EC
100
AcDbEntity
  8
1
  6
ByLayer
 62
  256
370
   -1
100
AcDbLine
 10
25.01120135867212
 20
-0.5999981227782131
 11
25.70402174174387
 21
-0.5999980707784269
  0
LINE
  5
1ED
100
AcDbEntity
  8
1
  6
ByLayer
 62
  256
370
   -1
100
AcDbLine
 10
24.89573130983788
 20
-0.3999981314448317
 11
25.01120135867212
 21
-0.5999981227782131
  0
LINE
  5
1EE
100
AcDbEntity
  8
1
  6
ByLayer
 62
  256
370
   -1
100
AcDbLine
 10
19.03265648946406
 20
-0.3999985714993476
 11
24.89573130983788
 21
-0.3999981314448317
  0
LINE
  5
1EF
100
AcDbEntity
  8
1
  6
ByLayer
 62
  256
370
   -1
100
AcDbLine
 10
19.03265648946406
 20
-0.3999985714993476
 11
20.78210116953964
 21
-3.430125642421337
  0
LINE
  5
1F0
100
AcDbEntity
  8
1
  6
ByLayer
 62
  256
370
   -1
100
AcDbLine
 10
21.01304127721549
 20
-3.430125642421327
 11
21.35945143872927
 21
-4.030125642421334
  0
LINE
  5
1F1
100
AcDbEntity
  8
1
  6
ByLayer
 62
  256
370
   -1
100
AcDbLine
 10
20.78210116953964
 20
-3.430125642421337
 11
21.01304127721549
 21
-3.430125642421327
  0
LINE
  5
1F2
100
AcDbEntity
  8
1
  6
ByLayer
 62
  256
370
   -1
100
AcDbLine
 10
19.97381079267416
 20
-4.030125642421329
 11
20.32022095418793
 21
-4.630125642421337
  0
LINE
  5
1F3
100
AcDbEntity
  8
1
  6
ByLayer
 62
  256
370
   -1
100
AcDbLine
 10
20.08928084651209
 20
-3.830125642421333
 11
19.97381079267416
 21
-4.030125642421329
  0
LINE
  5
1F4
100
AcDbEntity
  8
1
  6
ByLayer
 62
  256
370
   -1
100
AcDbLine
 10
18.10889609879012
 20
-0.399998640832413
 11
20.08928084651209
 21
-3.830125642421333
  0
LINE
  5
1F5
100
AcDbEntity
  8
1
  6
ByLayer
 62
  256
370
   -1
100
AcDbLine
 10
16.33265303851535
 20
-4.972323410989277
 11
17.7160722847844
 21
-4.972323410989275
  0
LINE
  5
1F6
100
AcDbEntity
  8
1
  6
ByLayer
 62
  256
370
   -1
100
AcDbLine
 10
17.7160722847844
 20
-4.972323410989275
 11
17.83154233862233
 21
-4.772323410989276
  0
LINE
  5
1F7
100
AcDbEntity
  8
1
  6
ByLayer
 62
  256
370
   -1
100
AcDbLine
 10
17.83154233862233
 20
-4.772323410989276
 11
18.52436266164987
 21
-4.77232341098927
  0
LINE
  5
1F8
100
AcDbEntity
  8
1
  6
ByLayer
 62
  256
370
   -1
100
AcDbLine
 10
17.7160722847844
 20
-5.77232341098927
 11
17.83154233862232
 21
-5.972323410989276
  0
LINE
  5
1F9
100
AcDbEntity
  8
1
  6
ByLayer
 62
  256
370
   -1
100
AcDbLine
 10
17.83154233862232
 20
-5.972323410989276
 11
18.52436266164987
 21
-5.972323410989269
  0
LINE
  5
1FA
100
AcDbEntity
  8
1
  6
ByLayer
 62
  256
370
   -1
100
AcDbLine
 10
16.79453325386705
 20
-5.772323410989263
 11
17.7160722847844
 21
-5.77232341098927
  0
LINE
  5
1FB
100
AcDbEntity
  8
1
  6
ByLayer
 62
  256
370
   -1
100
AcDbLine
 10
16.1017129308395
 20
-6.172323410989277
 11
15.64094341538083
 21
-6.970399622342586
  0
LINE
  5
1FC
100
AcDbEntity
  8
1
  6
ByLayer
 62
  256
370
   -1
100
AcDbLine
 10
15.75641346921875
 20
-7.170399622342591
 11
15.41000330770498
 21
-7.770399622342588
  0
LINE
  5
1FD
100
AcDbEntity
  8
1
  6
ByLayer
 62
  256
370
   -1
100
AcDbLine
 10
15.64094341538083
 20
-6.970399622342586
 11
15.75641346921875
 21
-7.170399622342591
  0
LINE
  5
1FE
100
AcDbEntity
  8
1
  6
ByLayer
 62
  256
370
   -1
100
AcDbLine
 10
14.71718298467742
 20
-6.570399622342594
 11
14.37077282316365
 21
-7.170399622342586
  0
LINE
  5
1FF
100
AcDbEntity
  8
1
  6
ByLayer
 62
  256
370
   -1
100
AcDbLine
 10
14.94812309235327
 20
-6.570399622342586
 11
14.71718298467742
 21
-6.570399622342594
  0
LINE
  5
200
100
AcDbEntity
  8
1
  6
ByLayer
 62
  256
370
   -1
100
AcDbLine
 10
15.6398327154878
 20
-5.372323410989267
 11
14.94812309235327
 21
-6.570399622342586
  0
LINE
  5
201
100
AcDbEntity
  8
1
  6
ByLayer
 62
  256
370
   -1
100
AcDbLine
 10
9.906057291787052
 20
-3.430126476058713
 11
10.25246745330083
 21
-4.030126476058718
  0
LINE
  5
202
100
AcDbEntity
  8
1
  6
ByLayer
 62
  256
370
   -1
100
AcDbLine
 10
9.675117184111201
 20
-3.430126476058719
 11
9.906057291787052
 21
-3.430126476058713
  0
LINE
  5
203
100
AcDbEntity
  8
1
  6
ByLayer
 62
  256
370
   -1
100
AcDbLine
 10
8.866826807245726
 20
-4.030126476058714
 11
9.213236968759499
 21
-4.630126476058713
  0
LINE
  5
204
100
AcDbEntity
  8
1
  6
ByLayer
 62
  256
370
   -1
100
AcDbLine
 10
8.982296861083652
 20
-3.830126476058716
 11
8.866826807245726
 21
-4.030126476058714
  0
LINE
  5
205
100
AcDbEntity
  8
1
  6
ByLayer
 62
  256
370
   -1
100
AcDbLine
 10
13.93432411211961
 20
-0.399998954155927
 11
18.10889609879012
 21
-0.399998640832413
  0
LINE
  5
206
100
AcDbEntity
  8
1
  6
ByLayer
 62
  256
370
   -1
100
AcDbLine
 10
16.33265303851535
 20
-4.972323410989277
 11
13.93432411211961
 21
-0.399998954155927
  0
LINE
  5
207
100
AcDbEntity
  8
1
  6
ByLayer
 62
  256
370
   -1
100
AcDbLine
 10
15.6398327154878
 20
-5.372323410989267
 11
12.52844149827111
 21
-0.3999990596747831
  0
LINE
  5
208
100
AcDbEntity
  8
1
  6
ByLayer
 62
  256
370
   -1
100
AcDbLine
 10
8.172932723109726
 20
-0.3999993865785484
 11
9.675117184111201
 21
-3.430126476058719
  0
LINE
  5
209
100
AcDbEntity
  8
1
  6
ByLayer
 62
  256
370
   -1
100
AcDbLine
 10
8.172932723109726
 20
-0.3999993865785484
 11
12.52844149827111
 21
-0.3999990596747831
  0
LINE
  5
20A
100
AcDbEntity
  8
1
  6
ByLayer
 62
  256
370
   -1
100
AcDbLine
 10
8.982296861083652
 20
-3.830126476058716
 11
6.761135293367707
 21
-0.4068769516595007
  0
LINE
  5
20B
100
AcDbEntity
  8
1
  6
ByLayer
 62
  256
370
   -1
100
AcDbLine
 10
10.25246684833647
 20
4.030128015061528
 11
9.906056596756407
 21
4.630127963061727
  0
LINE
  5
20C
100
AcDbEntity
  8
1
  6
ByLayer
 62
  256
370
   -1
100
AcDbLine
 10
9.213236273728864
 20
4.630127859062124
 11
9.906056596756407
 21
4.630127963061727
  0
LINE
  5
20D
100
AcDbEntity
  8
1
  6
ByLayer
 62
  256
370
   -1
100
AcDbLine
 10
21.35945083376491
 20
4.03012884869891
 11
21.01304058218485
 21
4.630128796699103
  0
LINE
  5
20E
100
AcDbEntity
  8
1
  6
ByLayer
 62
  256
370
   -1
100
AcDbLine
 10
20.3202202591573
 20
4.630128692699514
 11
21.01304058218485
 21
4.630128796699103
  0
LINE
  5
20F
100
AcDbEntity
  8
1
  6
ByLayer
 62
  256
370
   -1
100
AcDbLine
 10
18.52436194527388
 20
4.772326191690286
 11
18.87077201672136
 21
5.372326243690088
  0
LINE
  5
210
100
AcDbEntity
  8
1
  6
ByLayer
 62
  256
370
   -1
100
AcDbLine
 10
18.5243617651413
 20
5.972326191690271
 11
18.87077201672136
 21
5.372326243690088
  0
LINE
  5
211
100
AcDbEntity
  8
1
  6
ByLayer
 62
  256
370
   -1
100
AcDbLine
 10
15.41000214128634
 20
7.770401935545574
 11
14.7171818182588
 21
7.770401831545978
  0
LINE
  5
212
100
AcDbEntity
  8
1
  6
ByLayer
 62
  256
370
   -1
100
AcDbLine
 10
14.37077174681132
 20
7.170401779546187
 11
14.7171818182588
 21
7.770401831545978
  0
LINE
  5
213
100
AcDbEntity
  8
1
  6
ByLayer
 62
  256
370
   -1
100
AcDbLine
 10
25.01120126860584
 20
0.600001877221781
 11
25.70402165167758
 21
0.6000019292215987
  0
LINE
  5
214
100
AcDbEntity
  8
1
  6
ByLayer
 62
  256
370
   -1
100
AcDbLine
 10
24.89573124979369
 20
0.4000018685551368
 11
25.01120126860584
 21
0.600001877221781
  0
LINE
  5
215
100
AcDbEntity
  8
1
  6
ByLayer
 62
  256
370
   -1
100
AcDbLine
 10
19.03265642941987
 20
0.4000014285006628
 11
24.89573124979369
 21
0.4000018685551368
  0
LINE
  5
216
100
AcDbEntity
  8
1
  6
ByLayer
 62
  256
370
   -1
100
AcDbLine
 10
19.03265642941987
 20
0.4000014285006628
 11
20.78210065464157
 21
3.430128762032591
  0
LINE
  5
217
100
AcDbEntity
  8
1
  6
ByLayer
 62
  256
370
   -1
100
AcDbLine
 10
21.01304076231743
 20
3.430128796699113
 11
21.35945083376491
 21
4.03012884869891
  0
LINE
  5
218
100
AcDbEntity
  8
1
  6
ByLayer
 62
  256
370
   -1
100
AcDbLine
 10
20.78210065464157
 20
3.430128762032591
 11
21.01304076231743
 21
3.430128796699113
  0
LINE
  5
219
100
AcDbEntity
  8
1
  6
ByLayer
 62
  256
370
   -1
100
AcDbLine
 10
19.97381018770982
 20
4.030128640699715
 11
20.3202202591573
 21
4.630128692699514
  0
LINE
  5
21A
100
AcDbEntity
  8
1
  6
ByLayer
 62
  256
370
   -1
100
AcDbLine
 10
20.08928027156984
 20
3.830128658032988
 11
19.97381018770982
 21
4.030128640699715
  0
LINE
  5
21B
100
AcDbEntity
  8
1
  6
ByLayer
 62
  256
370
   -1
100
AcDbLine
 10
18.10889603874592
 20
0.4000013591675746
 11
20.08928027156984
 21
3.830128658032988
  0
LINE
  5
21C
100
AcDbEntity
  8
1
  6
ByLayer
 62
  256
370
   -1
100
AcDbLine
 10
16.33265229211728
 20
4.972325862691695
 11
17.71607153838632
 21
4.972326070357427
  0
LINE
  5
21D
100
AcDbEntity
  8
1
  6
ByLayer
 62
  256
370
   -1
100
AcDbLine
 10
17.71607153838632
 20
4.972326070357427
 11
17.83154162224634
 21
4.772326087690679
  0
LINE
  5
21E
100
AcDbEntity
  8
1
  6
ByLayer
 62
  256
370
   -1
100
AcDbLine
 10
17.83154162224634
 20
4.772326087690679
 11
18.52436194527388
 21
4.772326191690286
  0
LINE
  5
21F
100
AcDbEntity
  8
1
  6
ByLayer
 62
  256
370
   -1
100
AcDbLine
 10
17.71607141829793
 20
5.772326070357414
 11
17.83154144211376
 21
5.972326087690685
  0
LINE
  5
220
100
AcDbEntity
  8
1
  6
ByLayer
 62
  256
370
   -1
100
AcDbLine
 10
17.83154144211376
 20
5.972326087690685
 11
18.5243617651413
 21
5.972326191690271
  0
LINE
  5
221
100
AcDbEntity
  8
1
  6
ByLayer
 62
  256
370
   -1
100
AcDbLine
 10
16.79453238738059
 20
5.772325932024734
 11
17.71607141829793
 21
5.772326070357414
  0
LINE
  5
222
100
AcDbEntity
  8
1
  6
ByLayer
 62
  256
370
   -1
100
AcDbLine
 10
16.10171200430886
 20
6.172325828025134
 11
15.64094236905058
 21
6.970401970212115
  0
LINE
  5
223
100
AcDbEntity
  8
1
  6
ByLayer
 62
  256
370
   -1
100
AcDbLine
 10
15.75641239286641
 20
7.170401987545368
 11
15.41000214128634
 21
7.770401935545574
  0
LINE
  5
224
100
AcDbEntity
  8
1
  6
ByLayer
 62
  256
370
   -1
100
AcDbLine
 10
15.64094236905058
 20
6.970401970212115
 11
15.75641239286641
 21
7.170401987545368
  0
LINE
  5
225
100
AcDbEntity
  8
1
  6
ByLayer
 62
  256
370
   -1
100
AcDbLine
 10
14.71718199839137
 20
6.570401831545997
 11
14.37077174681132
 21
7.170401779546187
  0
LINE
  5
226
100
AcDbEntity
  8
1
  6
ByLayer
 62
  256
370
   -1
100
AcDbLine
 10
14.94812210606722
 20
6.570401866212522
 11
14.71718199839137
 21
6.570401831545997
  0
LINE
  5
227
100
AcDbEntity
  8
1
  6
ByLayer
 62
  256
370
   -1
100
AcDbLine
 10
15.63983190904555
 20
5.372325758692087
 11
14.94812210606722
 21
6.570401866212522
  0
LINE
  5
228
100
AcDbEntity
  8
1
  6
ByLayer
 62
  256
370
   -1
100
AcDbLine
 10
9.906056776888986
 20
3.430127963061741
 11
10.25246684833647
 21
4.030128015061528
  0
LINE
  5
229
100
AcDbEntity
  8
1
  6
ByLayer
 62
  256
370
   -1
100
AcDbLine
 10
9.675116669213145
 20
3.430127928395207
 11
9.906056776888986
 21
3.430127963061741
  0
LINE
  5
22A
100
AcDbEntity
  8
1
  6
ByLayer
 62
  256
370
   -1
100
AcDbLine
 10
8.866826202281388
 20
4.030127807062344
 11
9.213236273728864
 21
4.630127859062124
  0
LINE
  5
22B
100
AcDbEntity
  8
1
  6
ByLayer
 62
  256
370
   -1
100
AcDbLine
 10
8.982296286141406
 20
3.830127824395614
 11
8.866826202281388
 21
4.030127807062344
  0
LINE
  5
22C
100
AcDbEntity
  8
1
  6
ByLayer
 62
  256
370
   -1
100
AcDbLine
 10
13.93432405207541
 20
0.4000010458440776
 11
18.10889603874592
 21
0.4000013591675746
  0
LINE
  5
22D
100
AcDbEntity
  8
1
  6
ByLayer
 62
  256
370
   -1
100
AcDbLine
 10
16.33265229211728
 20
4.972325862691695
 11
13.93432405207541
 21
0.4000010458440776
  0
LINE
  5
22E
100
AcDbEntity
  8
1
  6
ByLayer
 62
  256
370
   -1
100
AcDbLine
 10
15.63983190904555
 20
5.372325758692087
 11
12.52844143822692
 21
0.4000009403252234
  0
LINE
  5
22F
100
AcDbEntity
  8
1
  6
ByLayer
 62
  256
370
   -1
100
AcDbLine
 10
8.172932663065534
 20
0.4000006134214489
 11
9.675116669213145
 21
3.430127928395207
  0
LINE
  5
230
100
AcDbEntity
  8
1
  6
ByLayer
 62
  256
370
   -1
100
AcDbLine
 10
8.172932663065534
 20
0.4000006134214489
 11
12.52844143822692
 21
0.4000009403252234
  0
LINE
  5
231
100
AcDbEntity
  8
1
  6
ByLayer
 62
  256
370
   -1
100
AcDbLine
 10
8.982296286141406
 20
3.830127824395614
 11
6.761135232291134
 21
0.4068779665767903
  0
LINE
  5
232
100
AcDbEntity
  8
1
  6
ByLayer
 62
  256
370
   -1
100
AcDbLine
 10
25.70402165167758
 20
0.6000019292215987
 11
26.0504318582245
 21
1.9552214846e-06
  0
LINE
  5
233
100
AcDbEntity
  8
1
  6
ByLayer
 62
  256
370
   -1
100
AcDbLine
 10
25.70402174174387
 20
-0.5999980707784269
 11
26.0504318582245
 21
1.9552214846e-06
  0
LINE
  5
234
100
AcDbEntity
  8
1
  6
ByLayer
 62
  256
370
   -1
100
AcDbLine
 10
18.92482477530391
 20
-9.062096561051119
 11
18.57841461379013
 21
-9.662096561051124
  0
LINE
  5
235
100
AcDbEntity
  8
1
  6
ByLayer
 62
  256
370
   -1
100
AcDbLine
 10
17.88559429076259
 20
-9.662096561051117
 11
18.57841461379013
 21
-9.662096561051124
  0
LINE
  5
236
100
AcDbEntity
  8
1
  6
ByLayer
 62
  256
370
   -1
100
AcDbLine
 10
18.57841461379013
 20
-8.462096561051121
 11
18.92482477530391
 21
-9.062096561051119
  0
LINE
  5
237
100
AcDbEntity
  8
1
  6
ByLayer
 62
  256
370
   -1
100
AcDbLine
 10
17.53918412924881
 20
-9.062096561051129
 11
17.88559429076259
 21
-9.662096561051117
  0
LINE
  5
238
100
AcDbEntity
  8
1
  6
ByLayer
 62
  256
370
   -1
100
AcDbLine
 10
18.92482341498798
 20
9.062099401865645
 11
18.57841316340792
 21
9.662099349865851
  0
LINE
  5
239
100
AcDbEntity
  8
1
  6
ByLayer
 62
  256
370
   -1
100
AcDbLine
 10
17.88559284038039
 20
9.66209924586625
 11
18.57841316340792
 21
9.662099349865851
  0
LINE
  5
23A
100
AcDbEntity
  8
1
  6
ByLayer
 62
  256
370
   -1
100
AcDbLine
 10
18.57841334354051
 20
8.462099349865865
 11
18.92482341498798
 21
9.062099401865645
  0
LINE
  5
23B
100
AcDbEntity
  8
1
  6
ByLayer
 62
  256
370
   -1
100
AcDbLine
 10
17.5391827689329
 20
9.062099193866453
 11
17.88559284038039
 21
9.66209924586625
  0
LINE
  5
23C
100
AcDbEntity
  8
1
  6
ByLayer
 62
  256
370
   -1
100
AcDbLine
 10
16.79453238738059
 20
5.772325932024734
 11
18.34747323586466
 21
8.462099315199335
  0
LINE
  5
23D
100
AcDbEntity
  8
1
  6
ByLayer
 62
  256
370
   -1
100
AcDbLine
 10
18.34747323586466
 20
8.462099315199335
 11
18.57841334354051
 21
8.462099349865865
  0
LINE
  5
23E
100
AcDbEntity
  8
1
  6
ByLayer
 62
  256
370
   -1
100
AcDbLine
 10
16.10171200430886
 20
6.172325828025134
 11
17.65465285279292
 21
8.862099211199736
  0
LINE
  5
23F
100
AcDbEntity
  8
1
  6
ByLayer
 62
  256
370
   -1
100
AcDbLine
 10
17.65465285279292
 20
8.862099211199736
 11
17.5391827689329
 21
9.062099193866453
  0
LINE
  5
240
100
AcDbEntity
  8
1
  6
ByLayer
 62
  256
370
   -1
100
AcDbLine
 10
16.79453325386705
 20
-5.772323410989263
 11
18.34747450611428
 21
-8.462096561051125
  0
LINE
  5
241
100
AcDbEntity
  8
1
  6
ByLayer
 62
  256
370
   -1
100
AcDbLine
 10
18.34747450611428
 20
-8.462096561051125
 11
18.57841461379013
 21
-8.462096561051121
  0
LINE
  5
242
100
AcDbEntity
  8
1
  6
ByLayer
 62
  256
370
   -1
100
AcDbLine
 10
16.1017129308395
 20
-6.172323410989277
 11
17.65465418308673
 21
-8.862096561051125
  0
LINE
  5
243
100
AcDbEntity
  8
1
  6
ByLayer
 62
  256
370
   -1
100
AcDbLine
 10
17.65465418308673
 20
-8.862096561051125
 11
17.53918412924881
 21
-9.062096561051129
  0
LINE
  5
244
100
AcDbEntity
  8
1
  6
ByLayer
 62
  256
370
   -1
100
AcDbLine
 10
8.616425635381523
 20
6.863834028002302
 11
8.962835796895297
 21
6.263834028002307
  0
LINE
  5
245
100
AcDbEntity
  8
1
  6
ByLayer
 62
  256
370
   -1
100
AcDbLine
 10
8.616425635381519
 20
5.663834028002303
 11
8.962835796895297
 21
6.263834028002307
  0
LINE
  5
246
100
AcDbEntity
  8
1
  6
ByLayer
 62
  256
370
   -1
100
AcDbLine
 10
14.16991690614459
 20
16.48276473562895
 11
14.51632706765836
 21
15.88276473562895
  0
LINE
  5
247
100
AcDbEntity
  8
1
  6
ByLayer
 62
  256
370
   -1
100
AcDbLine
 10
14.16991690614459
 20
15.28276473562894
 11
14.51632706765836
 21
15.88276473562895
  0
LINE
  5
248
100
AcDbEntity
  8
1
  6
ByLayer
 62
  256
370
   -1
100
AcDbLine
 10
13.39513463981685
 20
13.65640694841007
 11
14.0879549628444
 21
13.65640694841008
  0
LINE
  5
249
100
AcDbEntity
  8
1
  6
ByLayer
 62
  256
370
   -1
100
AcDbLine
 10
14.43436512435818
 20
13.05640694841007
 11
14.0879549628444
 21
13.65640694841008
  0
LINE
  5
24A
100
AcDbEntity
  8
1
  6
ByLayer
 62
  256
370
   -1
100
AcDbLine
 10
14.43436512435818
 20
9.460254525703437
 11
14.0879549628444
 21
8.860254525703439
  0
LINE
  5
24B
100
AcDbEntity
  8
1
  6
ByLayer
 62
  256
370
   -1
100
AcDbLine
 10
13.39513463981685
 20
8.860254525703439
 11
14.0879549628444
 21
8.860254525703439
  0
LINE
  5
24C
100
AcDbEntity
  8
1
  6
ByLayer
 62
  256
370
   -1
100
AcDbLine
 10
13.02521429588498
 20
21.36033669438882
 11
13.37162444238769
 21
21.96033677238852
  0
LINE
  5
24D
100
AcDbEntity
  8
1
  6
ByLayer
 62
  256
370
   -1
100
AcDbLine
 10
12.7942741982165
 20
21.36033669438881
 11
13.02521429588498
 21
21.36033669438882
  0
LINE
  5
24E
100
AcDbEntity
  8
1
  6
ByLayer
 62
  256
370
   -1
100
AcDbLine
 10
9.862737169127959
 20
16.28276473562896
 11
12.7942741982165
 21
21.36033669438881
  0
LINE
  5
24F
100
AcDbEntity
  8
1
  6
ByLayer
 62
  256
370
   -1
100
AcDbLine
 10
9.862737169127959
 20
16.28276473562896
 11
13.36162652927912
 21
16.28276473562894
  0
LINE
  5
250
100
AcDbEntity
  8
1
  6
ByLayer
 62
  256
370
   -1
100
AcDbLine
 10
13.47709658311705
 20
16.48276473562894
 11
14.16991690614459
 21
16.48276473562895
  0
LINE
  5
251
100
AcDbEntity
  8
1
  6
ByLayer
 62
  256
370
   -1
100
AcDbLine
 10
13.36162652927912
 20
16.28276473562894
 11
13.47709658311705
 21
16.48276473562894
  0
LINE
  5
252
100
AcDbEntity
  8
1
  6
ByLayer
 62
  256
370
   -1
100
AcDbLine
 10
13.47709658311705
 20
15.28276473562894
 11
14.16991690614459
 21
15.28276473562894
  0
LINE
  5
253
100
AcDbEntity
  8
1
  6
ByLayer
 62
  256
370
   -1
100
AcDbLine
 10
13.36162652927912
 20
15.48276473562895
 11
13.47709658311705
 21
15.28276473562894
  0
LINE
  5
254
100
AcDbEntity
  8
1
  6
ByLayer
 62
  256
370
   -1
100
AcDbLine
 10
9.40085703383518
 20
15.48276473562895
 11
13.36162652927912
 21
15.48276473562895
  0
LINE
  5
255
100
AcDbEntity
  8
1
  6
ByLayer
 62
  256
370
   -1
100
AcDbLine
 10
12.47248490900648
 20
11.65833073705675
 11
13.16419453214101
 21
12.85640694841007
  0
LINE
  5
256
100
AcDbEntity
  8
1
  6
ByLayer
 62
  256
370
   -1
100
AcDbLine
 10
13.16419453214101
 20
12.85640694841007
 11
13.04872447830308
 21
13.05640694841007
  0
LINE
  5
257
100
AcDbEntity
  8
1
  6
ByLayer
 62
  256
370
   -1
100
AcDbLine
 10
13.04872447830308
 20
13.05640694841007
 11
13.39513463981685
 21
13.65640694841007
  0
LINE
  5
258
100
AcDbEntity
  8
1
  6
ByLayer
 62
  256
370
   -1
100
AcDbLine
 10
13.85701485516855
 20
12.45640694841007
 11
14.08795496284441
 21
12.45640694841007
  0
LINE
  5
259
100
AcDbEntity
  8
1
  6
ByLayer
 62
  256
370
   -1
100
AcDbLine
 10
14.08795496284441
 20
12.45640694841007
 11
14.43436512435818
 21
13.05640694841007
  0
LINE
  5
25A
100
AcDbEntity
  8
1
  6
ByLayer
 62
  256
370
   -1
100
AcDbLine
 10
13.39624533970989
 20
11.65833073705675
 11
13.85701485516855
 21
12.45640694841007
  0
LINE
  5
25B
100
AcDbEntity
  8
1
  6
ByLayer
 62
  256
370
   -1
100
AcDbLine
 10
13.39624533970989
 20
10.85833073705675
 11
13.85701485516856
 21
10.06025452570344
  0
LINE
  5
25C
100
AcDbEntity
  8
1
  6
ByLayer
 62
  256
370
   -1
100
AcDbLine
 10
14.08795496284441
 20
10.06025452570344
 11
14.43436512435818
 21
9.460254525703437
  0
LINE
  5
25D
100
AcDbEntity
  8
1
  6
ByLayer
 62
  256
370
   -1
100
AcDbLine
 10
13.85701485516856
 20
10.06025452570344
 11
14.08795496284441
 21
10.06025452570344
  0
LINE
  5
25E
100
AcDbEntity
  8
1
  6
ByLayer
 62
  256
370
   -1
100
AcDbLine
 10
13.04872447830308
 20
9.460254525703434
 11
13.39513463981685
 21
8.860254525703439
  0
LINE
  5
25F
100
AcDbEntity
  8
1
  6
ByLayer
 62
  256
370
   -1
100
AcDbLine
 10
13.164194532141
 20
9.660254525703438
 11
13.04872447830308
 21
9.460254525703434
  0
LINE
  5
260
100
AcDbEntity
  8
1
  6
ByLayer
 62
  256
370
   -1
100
AcDbLine
 10
12.47248490900648
 20
10.85833073705676
 11
13.164194532141
 21
9.660254525703438
  0
LINE
  5
261
100
AcDbEntity
  8
1
  6
ByLayer
 62
  256
370
   -1
100
AcDbLine
 10
7.92360531235397
 20
6.863834028002305
 11
8.616425635381523
 21
6.863834028002302
  0
LINE
  5
262
100
AcDbEntity
  8
1
  6
ByLayer
 62
  256
370
   -1
100
AcDbLine
 10
7.808135258516042
 20
6.663834028002309
 11
7.92360531235397
 21
6.863834028002305
  0
LINE
  5
263
100
AcDbEntity
  8
1
  6
ByLayer
 62
  256
370
   -1
100
AcDbLine
 10
7.92360531235397
 20
5.663834028002306
 11
8.616425635381519
 21
5.663834028002303
  0
LINE
  5
264
100
AcDbEntity
  8
1
  6
ByLayer
 62
  256
370
   -1
100
AcDbLine
 10
7.808135258516048
 20
5.863834028002305
 11
7.92360531235397
 21
5.663834028002306
  0
LINE
  5
265
100
AcDbEntity
  8
1
  6
ByLayer
 62
  256
370
   -1
100
AcDbLine
 10
7.313571311846036
 20
11.86747918858366
 11
9.40085703383518
 21
15.48276473562895
  0
LINE
  5
266
100
AcDbEntity
  8
1
  6
ByLayer
 62
  256
370
   -1
100
AcDbLine
 10
12.47248490900648
 20
11.65833073705675
 11
7.313571311846036
 21
11.86747918858366
  0
LINE
  5
267
100
AcDbEntity
  8
1
  6
ByLayer
 62
  256
370
   -1
100
AcDbLine
 10
12.47248490900648
 20
10.85833073705676
 11
6.610630096303807
 21
10.64994907749256
  0
LINE
  5
268
100
AcDbEntity
  8
1
  6
ByLayer
 62
  256
370
   -1
100
AcDbLine
 10
4.432875991830087
 20
6.877967668344874
 11
7.808135258516042
 21
6.663834028002309
  0
LINE
  5
269
100
AcDbEntity
  8
1
  6
ByLayer
 62
  256
370
   -1
100
AcDbLine
 10
4.432875991830087
 20
6.877967668344874
 11
6.610630096303807
 21
10.64994907749256
  0
LINE
  5
26A
100
AcDbEntity
  8
1
  6
ByLayer
 62
  256
370
   -1
100
AcDbLine
 10
7.808135258516048
 20
5.863834028002305
 11
3.732933423035351
 21
5.65187644665024
  0
LINE
  5
26B
100
AcDbEntity
  8
1
  6
ByLayer
 62
  256
370
   -1
100
AcDbLine
 10
1.636040182621592
 20
10.89396074964793
 11
0.9432198595940551
 21
10.89396064564833
  0
LINE
  5
26C
100
AcDbEntity
  8
1
  6
ByLayer
 62
  256
370
   -1
100
AcDbLine
 10
0.5968097881465716
 20
10.29396059364854
 11
0.9432198595940551
 21
10.89396064564833
  0
LINE
  5
26D
100
AcDbEntity
  8
1
  6
ByLayer
 62
  256
370
   -1
100
AcDbLine
 10
7.189531453384673
 20
20.51289145727457
 11
6.496711130357133
 21
20.51289135327498
  0
LINE
  5
26E
100
AcDbEntity
  8
1
  6
ByLayer
 62
  256
370
   -1
100
AcDbLine
 10
6.150301058909644
 20
19.91289130127518
 11
6.496711130357133
 21
20.51289135327498
  0
LINE
  5
26F
100
AcDbEntity
  8
1
  6
ByLayer
 62
  256
370
   -1
100
AcDbLine
 10
5.129225255487316
 20
18.42873112935004
 11
4.782815003907258
 21
19.02873107735024
  0
LINE
  5
270
100
AcDbEntity
  8
1
  6
ByLayer
 62
  256
370
   -1
100
AcDbLine
 10
4.089994680879711
 20
19.02873097335065
 11
4.782815003907258
 21
19.02873107735024
  0
LINE
  5
271
100
AcDbEntity
  8
1
  6
ByLayer
 62
  256
370
   -1
100
AcDbLine
 10
0.9756355968449367
 20
17.23065429449935
 11
0.6292255253974584
 21
16.63065424249956
  0
LINE
  5
272
100
AcDbEntity
  8
1
  6
ByLayer
 62
  256
370
   -1
100
AcDbLine
 10
0.97563577697752
 20
16.03065429449937
 11
0.6292255253974584
 21
16.63065424249956
  0
LINE
  5
273
100
AcDbEntity
  8
1
  6
ByLayer
 62
  256
370
   -1
100
AcDbLine
 10
11.98598376631051
 20
21.96033661638912
 11
12.33239391281324
 21
22.56033669438881
  0
LINE
  5
274
100
AcDbEntity
  8
1
  6
ByLayer
 62
  256
370
   -1
100
AcDbLine
 10
12.10145384516684
 20
21.76033664238902
 11
11.98598376631051
 21
21.96033661638912
  0
LINE
  5
275
100
AcDbEntity
  8
1
  6
ByLayer
 62
  256
370
   -1
100
AcDbLine
 10
9.169916816078315
 20
16.68276468362915
 11
12.10145384516684
 21
21.76033664238902
  0
LINE
  5
276
100
AcDbEntity
  8
1
  6
ByLayer
 62
  256
370
   -1
100
AcDbLine
 10
9.169916816078315
 20
16.68276468362915
 11
7.420471681148904
 21
19.71289149194111
  0
LINE
  5
277
100
AcDbEntity
  8
1
  6
ByLayer
 62
  256
370
   -1
100
AcDbLine
 10
7.535941704964723
 20
19.91289150927438
 11
7.189531453384673
 21
20.51289145727457
  0
LINE
  5
278
100
AcDbEntity
  8
1
  6
ByLayer
 62
  256
370
   -1
100
AcDbLine
 10
7.420471681148904
 20
19.71289149194111
 11
7.535941704964723
 21
19.91289150927438
  0
LINE
  5
279
100
AcDbEntity
  8
1
  6
ByLayer
 62
  256
370
   -1
100
AcDbLine
 10
6.496711310489697
 20
19.31289135327499
 11
6.150301058909644
 21
19.91289130127518
  0
LINE
  5
27A
100
AcDbEntity
  8
1
  6
ByLayer
 62
  256
370
   -1
100
AcDbLine
 10
6.72765141816556
 20
19.31289138794152
 11
6.496711310489697
 21
19.31289135327499
  0
LINE
  5
27B
100
AcDbEntity
  8
1
  6
ByLayer
 62
  256
370
   -1
100
AcDbLine
 10
8.708036680785531
 20
15.88276468362915
 11
6.72765141816556
 21
19.31289138794152
  0
LINE
  5
27C
100
AcDbEntity
  8
1
  6
ByLayer
 62
  256
370
   -1
100
AcDbLine
 10
3.860165633073266
 20
16.63065472749755
 11
4.551875076363984
 21
17.82873104268373
  0
LINE
  5
27D
100
AcDbEntity
  8
1
  6
ByLayer
 62
  256
370
   -1
100
AcDbLine
 10
4.551875076363984
 20
17.82873104268373
 11
4.782815184039832
 21
17.82873107735026
  0
LINE
  5
27E
100
AcDbEntity
  8
1
  6
ByLayer
 62
  256
370
   -1
100
AcDbLine
 10
4.782815184039832
 20
17.82873107735026
 11
5.129225255487316
 21
18.42873112935004
  0
LINE
  5
27F
100
AcDbEntity
  8
1
  6
ByLayer
 62
  256
370
   -1
100
AcDbLine
 10
3.85905469329225
 20
18.22873093868412
 11
3.743584609432224
 21
18.42873092135086
  0
LINE
  5
280
100
AcDbEntity
  8
1
  6
ByLayer
 62
  256
370
   -1
100
AcDbLine
 10
3.743584609432224
 20
18.42873092135086
 11
4.089994680879711
 21
19.02873097335065
  0
LINE
  5
281
100
AcDbEntity
  8
1
  6
ByLayer
 62
  256
370
   -1
100
AcDbLine
 10
3.39828529763318
 20
17.43065465816448
 11
3.85905469329225
 21
18.22873093868412
  0
LINE
  5
282
100
AcDbEntity
  8
1
  6
ByLayer
 62
  256
370
   -1
100
AcDbLine
 10
2.705465034649833
 20
17.03065455416489
 11
1.783926003732504
 21
17.03065441583222
  0
LINE
  5
283
100
AcDbEntity
  8
1
  6
ByLayer
 62
  256
370
   -1
100
AcDbLine
 10
1.668455919872476
 20
17.23065439849895
 11
0.9756355968449367
 21
17.23065429449935
  0
LINE
  5
284
100
AcDbEntity
  8
1
  6
ByLayer
 62
  256
370
   -1
100
AcDbLine
 10
1.783926003732504
 20
17.03065441583222
 11
1.668455919872476
 21
17.23065439849895
  0
LINE
  5
285
100
AcDbEntity
  8
1
  6
ByLayer
 62
  256
370
   -1
100
AcDbLine
 10
1.668456100005069
 20
16.03065439849896
 11
0.97563577697752
 21
16.03065429449937
  0
LINE
  5
286
100
AcDbEntity
  8
1
  6
ByLayer
 62
  256
370
   -1
100
AcDbLine
 10
1.783926123820889
 20
16.23065441583222
 11
1.668456100005069
 21
16.03065439849896
  0
LINE
  5
287
100
AcDbEntity
  8
1
  6
ByLayer
 62
  256
370
   -1
100
AcDbLine
 10
3.167345370089925
 20
16.23065462349796
 11
1.783926123820889
 21
16.23065441583222
  0
LINE
  5
288
100
AcDbEntity
  8
1
  6
ByLayer
 62
  256
370
   -1
100
AcDbLine
 10
1.982450434201667
 20
10.29396080164773
 11
1.636040182621592
 21
10.89396074964793
  0
LINE
  5
289
100
AcDbEntity
  8
1
  6
ByLayer
 62
  256
370
   -1
100
AcDbLine
 10
1.866980410385836
 20
10.09396078431447
 11
1.982450434201667
 21
10.29396080164773
  0
LINE
  5
28A
100
AcDbEntity
  8
1
  6
ByLayer
 62
  256
370
   -1
100
AcDbLine
 10
0.9432200397266356
 20
9.693960645648351
 11
0.5968097881465716
 21
10.29396059364854
  0
LINE
  5
28B
100
AcDbEntity
  8
1
  6
ByLayer
 62
  256
370
   -1
100
AcDbLine
 10
1.174160147402482
 20
9.693960680314881
 11
0.9432200397266356
 21
9.693960645648351
  0
LINE
  5
28C
100
AcDbEntity
  8
1
  6
ByLayer
 62
  256
370
   -1
100
AcDbLine
 10
6.620750958796406
 20
12.26747913658385
 11
8.708036680785531
 21
15.88276468362915
  0
LINE
  5
28D
100
AcDbEntity
  8
1
  6
ByLayer
 62
  256
370
   -1
100
AcDbLine
 10
3.860165633073266
 20
16.63065472749755
 11
6.620750958796406
 21
12.26747913658385
  0
LINE
  5
28E
100
AcDbEntity
  8
1
  6
ByLayer
 62
  256
370
   -1
100
AcDbLine
 10
3.167345370089925
 20
16.23065462349796
 11
5.917809743254165
 21
11.04994902549276
  0
LINE
  5
28F
100
AcDbEntity
  8
1
  6
ByLayer
 62
  256
370
   -1
100
AcDbLine
 10
3.740055638780436
 20
7.27796761634508
 11
1.866980410385836
 21
10.09396078431447
  0
LINE
  5
290
100
AcDbEntity
  8
1
  6
ByLayer
 62
  256
370
   -1
100
AcDbLine
 10
3.740055638780436
 20
7.27796761634508
 11
5.917809743254165
 21
11.04994902549276
  0
LINE
  5
291
100
AcDbEntity
  8
1
  6
ByLayer
 62
  256
370
   -1
100
AcDbLine
 10
1.174160147402482
 20
9.693960680314881
 11
3.028200960849913
 21
6.058753852874519
  0
LINE
  5
292
100
AcDbEntity
  8
1
  6
ByLayer
 62
  256
370
   -1
100
AcDbLine
 10
12.33239391281324
 20
22.56033669438881
 11
13.02521423584078
 21
22.56033674638861
  0
LINE
  5
293
100
AcDbEntity
  8
1
  6
ByLayer
 62
  256
370
   -1
100
AcDbLine
 10
13.37162444238769
 20
21.96033677238852
 11
13.02521423584078
 21
22.56033674638861
  0
LINE
  5
294
100
AcDbEntity
  8
1
  6
ByLayer
 62
  256
370
   -1
100
AcDbLine
 10
17.31041822106983
 20
11.85833073705676
 11
17.6568283825836
 21
11.25833073705675
  0
LINE
  5
295
100
AcDbEntity
  8
1
  6
ByLayer
 62
  256
370
   -1
100
AcDbLine
 10
17.31041822106983
 20
10.65833073705674
 11
17.6568283825836
 21
11.25833073705675
  0
LINE
  5
296
100
AcDbEntity
  8
1
  6
ByLayer
 62
  256
370
   -1
100
AcDbLine
 10
16.61759789804228
 20
11.85833073705675
 11
17.31041822106983
 21
11.85833073705676
  0
LINE
  5
297
100
AcDbEntity
  8
1
  6
ByLayer
 62
  256
370
   -1
100
AcDbLine
 10
16.61759789804228
 20
10.65833073705674
 11
17.31041822106983
 21
10.65833073705674
  0
LINE
  5
298
100
AcDbEntity
  8
1
  6
ByLayer
 62
  256
370
   -1
100
AcDbLine
 10
1.614403413858564
 20
20.92042754044699
 11
0.9215830908310328
 21
20.9204274364474
  0
LINE
  5
299
100
AcDbEntity
  8
1
  6
ByLayer
 62
  256
370
   -1
100
AcDbLine
 10
0.5751730193835608
 20
20.32042738444761
 11
0.9215830908310328
 21
20.9204274364474
  0
LINE
  5
29A
100
AcDbEntity
  8
1
  6
ByLayer
 62
  256
370
   -1
100
AcDbLine
 10
1.960813665438641
 20
20.3204275924468
 11
1.614403413858564
 21
20.92042754044699
  0
LINE
  5
29B
100
AcDbEntity
  8
1
  6
ByLayer
 62
  256
370
   -1
100
AcDbLine
 10
0.9215832709636093
 20
19.72042743644742
 11
0.5751730193835608
 21
20.32042738444761
  0
LINE
  5
29C
100
AcDbEntity
  8
1
  6
ByLayer
 62
  256
370
   -1
100
AcDbLine
 10
3.39828529763318
 20
17.43065465816448
 11
1.845343641622811
 21
20.12042757511354
  0
LINE
  5
29D
100
AcDbEntity
  8
1
  6
ByLayer
 62
  256
370
   -1
100
AcDbLine
 10
1.845343641622811
 20
20.12042757511354
 11
1.960813665438641
 21
20.3204275924468
  0
LINE
  5
29E
100
AcDbEntity
  8
1
  6
ByLayer
 62
  256
370
   -1
100
AcDbLine
 10
2.705465034649833
 20
17.03065455416489
 11
1.152523378639463
 21
19.72042747111395
  0
LINE
  5
29F
100
AcDbEntity
  8
1
  6
ByLayer
 62
  256
370
   -1
100
AcDbLine
 10
1.152523378639463
 20
19.72042747111395
 11
0.9215832709636093
 21
19.72042743644742
  0
LINE
  5
2A0
100
AcDbEntity
  8
1
  6
ByLayer
 62
  256
370
   -1
100
AcDbLine
 10
13.39624533970989
 20
11.65833073705675
 11
16.50212784420436
 21
11.65833073705675
  0
LINE
  5
2A1
100
AcDbEntity
  8
1
  6
ByLayer
 62
  256
370
   -1
100
AcDbLine
 10
16.50212784420436
 20
11.65833073705675
 11
16.61759789804228
 21
11.85833073705675
  0
LINE
  5
2A2
100
AcDbEntity
  8
1
  6
ByLayer
 62
  256
370
   -1
100
AcDbLine
 10
13.39624533970989
 20
10.85833073705675
 11
16.50212784420436
 21
10.85833073705675
  0
LINE
  5
2A3
100
AcDbEntity
  8
1
  6
ByLayer
 62
  256
370
   -1
100
AcDbLine
 10
16.50212784420436
 20
10.85833073705675
 11
16.61759789804228
 21
10.65833073705674
  0
LINE
  5
2A4
100
AcDbEntity
  8
1
  6
ByLayer
 62
  256
370
   -1
100
AcDbLine
 10
3.028200960849913
 20
6.058753852874519
 11
1.114791856342087
 21
2.952941311709593
  0
LINE
  5
2A5
100
AcDbEntity
  8
1
  6
ByLayer
 62
  256
370
   -1
100
AcDbLine
 10
-3.028201870332359
 20
6.058753398309736
 11
-1.114792299609533
 21
2.952941144367615
  0
LINE
  5
2A6
100
AcDbEntity
  8
1
  6
ByLayer
 62
  256
370
   -1
100
AcDbLine
 10
1.114791856342087
 20
2.952941311709593
 11
-1.114792299609533
 21
2.952941144367615
  0
LINE
  5
2A7
100
AcDbEntity
  8
1
  6
ByLayer
 62
  256
370
   -1
100
AcDbLine
 10
-3.732934271441227
 20
5.651875886297727
 11
-1.999926263654009
 21
2.441908723379055
  0
LINE
  5
2A8
100
AcDbEntity
  8
1
  6
ByLayer
 62
  256
370
   -1
100
AcDbLine
 10
-6.761135293367708
 20
0.4068769516594938
 11
-3.114718196707415
 21
0.511032120778678
  0
LINE
  5
2A9
100
AcDbEntity
  8
1
  6
ByLayer
 62
  256
370
   -1
100
AcDbLine
 10
-1.999926263654009
 20
2.441908723379055
 11
-3.114718196707415
 21
0.511032120778678
  0
LINE
  5
2AA
100
AcDbEntity
  8
1
  6
ByLayer
 62
  256
370
   -1
100
AcDbLine
 10
-6.761135232291134
 20
-0.406877966576791
 11
-3.114718119996077
 21
-0.5110325883305384
  0
LINE
  5
2AB
100
AcDbEntity
  8
1
  6
ByLayer
 62
  256
370
   -1
100
AcDbLine
 10
-3.73293342303535
 20
-5.651876446650241
 11
-1.999925897097872
 21
-2.441909023588922
  0
LINE
  5
2AC
100
AcDbEntity
  8
1
  6
ByLayer
 62
  256
370
   -1
100
AcDbLine
 10
-3.114718119996077
 20
-0.5110325883305384
 11
-1.999925897097872
 21
-2.441909023588922
  0
LINE
  5
2AD
100
AcDbEntity
  8
1
  6
ByLayer
 62
  256
370
   -1
100
AcDbLine
 10
-3.028200960849913
 20
-6.058753852874519
 11
-1.114791856342068
 21
-2.952941311709563
  0
LINE
  5
2AE
100
AcDbEntity
  8
1
  6
ByLayer
 62
  256
370
   -1
100
AcDbLine
 10
3.028201870332361
 20
-6.058753398309735
 11
1.114792299609517
 21
-2.952941144367586
  0
LINE
  5
2AF
100
AcDbEntity
  8
1
  6
ByLayer
 62
  256
370
   -1
100
AcDbLine
 10
-1.114791856342068
 20
-2.952941311709563
 11
1.114792299609517
 21
-2.952941144367586
  0
LINE
  5
2B0
100
AcDbEntity
  8
1
  6
ByLayer
 62
  256
370
   -1
100
AcDbLine
 10
3.732934271441225
 20
-5.651875886297727
 11
1.99992626365399
 21
-2.441908723379022
  0
LINE
  5
2B1
100
AcDbEntity
  8
1
  6
ByLayer
 62
  256
370
   -1
100
AcDbLine
 10
6.761135293367707
 20
-0.4068769516595007
 11
3.114718196707376
 21
-0.5110321207786822
  0
LINE
  5
2B2
100
AcDbEntity
  8
1
  6
ByLayer
 62
  256
370
   -1
100
AcDbLine
 10
1.99992626365399
 20
-2.441908723379022
 11
3.114718196707376
 21
-0.5110321207786822
  0
LINE
  5
2B3
100
AcDbEntity
  8
1
  6
ByLayer
 62
  256
370
   -1
100
AcDbLine
 10
6.761135232291134
 20
0.4068779665767903
 11
3.114718119996073
 21
0.5110325883305382
  0
LINE
  5
2B4
100
AcDbEntity
  8
1
  6
ByLayer
 62
  256
370
   -1
100
AcDbLine
 10
3.732933423035351
 20
5.65187644665024
 11
1.999925897097872
 21
2.44190902358892
  0
LINE
  5
2B5
100
AcDbEntity
  8
1
  6
ByLayer
 62
  256
370
   -1
100
AcDbLine
 10
3.114718119996073
 20
0.5110325883305382
 11
1.999925897097872
 21
2.44190902358892
  0
ENDSEC
  0
SECTION
  2
OBJECTS
  0
DICTIONARY
  5
C
330
0
100
AcDbDictionary
281
    1
  3
ACAD_GROUP
350
D
  0
DICTIONARY
  5
D
330
C
100
AcDbDictionary
281
    1
  0
ENDSEC
  0
EOF
